  0
SECTION
  2
HEADER
  9
$ACADVER
  1
AC1021
  9
$ACADMAINTVER
 70
    25
  9
$DWGCODEPAGE
  3
ANSI_1252
  9
$INSBASE
 10
0.0
 20
0.0
 30
0.0
  9
$EXTMIN
 10
-14.1547850857
 20
-282.3144021297
 30
0.0
  9
$EXTMAX
 10
703.5821510154
 20
138.7966813888
 30
0.0
  9
$LIMMIN
 10
0.0
 20
0.0
  9
$LIMMAX
 10
420.0
 20
297.0
  9
$ORTHOMODE
 70
     0
  9
$REGENMODE
 70
     1
  9
$FILLMODE
 70
     1
  9
$QTEXTMODE
 70
     0
  9
$MIRRTEXT
 70
     1
  9
$LTSCALE
 40
1.0
  9
$ATTMODE
 70
     1
  9
$TEXTSIZE
 40
3.5
  9
$TRACEWID
 40
1.0
  9
$TEXTSTYLE
  7
Standard
  9
$CLAYER
  8
0
  9
$CELTYPE
  6
ByLayer
  9
$CECOLOR
 62
   256
  9
$CELTSCALE
 40
1.0
  9
$DISPSILH
 70
     0
  9
$DIMSCALE
 40
1.0
  9
$DIMASZ
 40
6.0
  9
$DIMEXO
 40
1.0
  9
$DIMDLI
 40
3.75
  9
$DIMRND
 40
0.0
  9
$DIMDLE
 40
0.0
  9
$DIMEXE
 40
1.0
  9
$DIMTP
 40
0.0
  9
$DIMTM
 40
0.0
  9
$DIMTXT
 40
3.5
  9
$DIMCEN
 40
2.5
  9
$DIMTSZ
 40
0.0
  9
$DIMTOL
 70
     0
  9
$DIMLIM
 70
     0
  9
$DIMTIH
 70
     1
  9
$DIMTOH
 70
     1
  9
$DIMSE1
 70
     0
  9
$DIMSE2
 70
     0
  9
$DIMTAD
 70
     1
  9
$DIMZIN
 70
     0
  9
$DIMBLK
  1

  9
$DIMASO
 70
     1
  9
$DIMSHO
 70
     1
  9
$DIMPOST
  1

  9
$DIMAPOST
  1

  9
$DIMALT
 70
     0
  9
$DIMALTD
 70
     3
  9
$DIMALTF
 40
0.0393700787
  9
$DIMLFAC
 40
1.0
  9
$DIMTOFL
 70
     1
  9
$DIMTVP
 40
0.0
  9
$DIMTIX
 70
     0
  9
$DIMSOXD
 70
     0
  9
$DIMSAH
 70
     0
  9
$DIMBLK1
  1

  9
$DIMBLK2
  1

  9
$DIMSTYLE
  2
ISO-25
  9
$DIMCLRD
 70
     0
  9
$DIMCLRE
 70
     0
  9
$DIMCLRT
 70
     0
  9
$DIMTFAC
 40
1.0
  9
$DIMGAP
 40
1.524
  9
$DIMJUST
 70
     0
  9
$DIMSD1
 70
     0
  9
$DIMSD2
 70
     0
  9
$DIMTOLJ
 70
     0
  9
$DIMTZIN
 70
     0
  9
$DIMALTZ
 70
     0
  9
$DIMALTTZ
 70
     0
  9
$DIMUPT
 70
     0
  9
$DIMDEC
 70
     2
  9
$DIMTDEC
 70
     2
  9
$DIMALTU
 70
     2
  9
$DIMALTTD
 70
     3
  9
$DIMTXSTY
  7
Standard
  9
$DIMAUNIT
 70
     0
  9
$DIMADEC
 70
     2
  9
$DIMALTRND
 40
0.0
  9
$DIMAZIN
 70
     0
  9
$DIMDSEP
 70
    44
  9
$DIMATFIT
 70
     3
  9
$DIMFRAC
 70
     0
  9
$DIMLDRBLK
  1

  9
$DIMLUNIT
 70
     2
  9
$DIMLWD
 70
    -2
  9
$DIMLWE
 70
    -2
  9
$DIMTMOVE
 70
     0
  9
$DIMFXL
 40
1.0
  9
$DIMFXLON
 70
     0
  9
$DIMJOGANG
 40
0.7853981634
  9
$DIMTFILL
 70
     0
  9
$DIMTFILLCLR
 70
     0
  9
$DIMARCSYM
 70
     0
  9
$DIMLTYPE
  6

  9
$DIMLTEX1
  6

  9
$DIMLTEX2
  6

  9
$LUNITS
 70
     2
  9
$LUPREC
 70
     2
  9
$SKETCHINC
 40
1.0
  9
$FILLETRAD
 40
10.0
  9
$AUNITS
 70
     0
  9
$AUPREC
 70
     2
  9
$MENU
  1
.
  9
$ELEVATION
 40
0.0
  9
$PELEVATION
 40
0.0
  9
$THICKNESS
 40
0.0
  9
$LIMCHECK
 70
     0
  9
$CHAMFERA
 40
0.0
  9
$CHAMFERB
 40
0.0
  9
$CHAMFERC
 40
0.0
  9
$CHAMFERD
 40
0.0
  9
$SKPOLY
 70
     0
  9
$TDCREATE
 40
2458227.616214803
  9
$TDUCREATE
 40
2458227.53288147
  9
$TDUPDATE
 40
2458227.616243125
  9
$TDUUPDATE
 40
2458227.532909791
  9
$TDINDWG
 40
0.0000000116
  9
$TDUSRTIMER
 40
0.0000000116
  9
$USRTIMER
 70
     1
  9
$ANGBASE
 50
0.0
  9
$ANGDIR
 70
     0
  9
$PDMODE
 70
     0
  9
$PDSIZE
 40
-1.0
  9
$PLINEWID
 40
0.0
  9
$SPLFRAME
 70
     0
  9
$SPLINETYPE
 70
     6
  9
$SPLINESEGS
 70
     8
  9
$HANDSEED
  5
456
  9
$SURFTAB1
 70
     6
  9
$SURFTAB2
 70
     6
  9
$SURFTYPE
 70
     6
  9
$SURFU
 70
     6
  9
$SURFV
 70
     6
  9
$UCSBASE
  2

  9
$UCSNAME
  2

  9
$UCSORG
 10
0.0
 20
0.0
 30
0.0
  9
$UCSXDIR
 10
1.0
 20
0.0
 30
0.0
  9
$UCSYDIR
 10
0.0
 20
1.0
 30
0.0
  9
$UCSORTHOREF
  2

  9
$UCSORTHOVIEW
 70
     0
  9
$UCSORGTOP
 10
0.0
 20
0.0
 30
0.0
  9
$UCSORGBOTTOM
 10
0.0
 20
0.0
 30
0.0
  9
$UCSORGLEFT
 10
0.0
 20
0.0
 30
0.0
  9
$UCSORGRIGHT
 10
0.0
 20
0.0
 30
0.0
  9
$UCSORGFRONT
 10
0.0
 20
0.0
 30
0.0
  9
$UCSORGBACK
 10
0.0
 20
0.0
 30
0.0
  9
$PUCSBASE
  2

  9
$PUCSNAME
  2

  9
$PUCSORG
 10
0.0
 20
0.0
 30
0.0
  9
$PUCSXDIR
 10
1.0
 20
0.0
 30
0.0
  9
$PUCSYDIR
 10
0.0
 20
1.0
 30
0.0
  9
$PUCSORTHOREF
  2

  9
$PUCSORTHOVIEW
 70
     0
  9
$PUCSORGTOP
 10
0.0
 20
0.0
 30
0.0
  9
$PUCSORGBOTTOM
 10
0.0
 20
0.0
 30
0.0
  9
$PUCSORGLEFT
 10
0.0
 20
0.0
 30
0.0
  9
$PUCSORGRIGHT
 10
0.0
 20
0.0
 30
0.0
  9
$PUCSORGFRONT
 10
0.0
 20
0.0
 30
0.0
  9
$PUCSORGBACK
 10
0.0
 20
0.0
 30
0.0
  9
$USERI1
 70
     0
  9
$USERI2
 70
     0
  9
$USERI3
 70
     0
  9
$USERI4
 70
     0
  9
$USERI5
 70
     0
  9
$USERR1
 40
0.0
  9
$USERR2
 40
0.0
  9
$USERR3
 40
0.0
  9
$USERR4
 40
0.0
  9
$USERR5
 40
0.0
  9
$WORLDVIEW
 70
     1
  9
$SHADEDGE
 70
     3
  9
$SHADEDIF
 70
    70
  9
$TILEMODE
 70
     1
  9
$MAXACTVP
 70
    64
  9
$PINSBASE
 10
0.0
 20
0.0
 30
0.0
  9
$PLIMCHECK
 70
     0
  9
$PEXTMIN
 10
-10.002468831
 20
-10.0154202096
 30
0.0
  9
$PEXTMAX
 10
665.0
 20
330.0154202096
 30
0.0
  9
$PLIMMIN
 10
-62.5318438374
 20
-29.713935837
  9
$PLIMMAX
 10
717.5293750063
 20
521.8445017292
  9
$UNITMODE
 70
     0
  9
$VISRETAIN
 70
     1
  9
$PLINEGEN
 70
     0
  9
$PSLTSCALE
 70
     1
  9
$TREEDEPTH
 70
  3020
  9
$CMLSTYLE
  2
Standard
  9
$CMLJUST
 70
     0
  9
$CMLSCALE
 40
20.0
  9
$PROXYGRAPHICS
 70
     1
  9
$MEASUREMENT
 70
     1
  9
$CELWEIGHT
370
    -1
  9
$ENDCAPS
280
     0
  9
$JOINSTYLE
280
     0
  9
$LWDISPLAY
290
     1
  9
$INSUNITS
 70
     4
  9
$HYPERLINKBASE
  1

  9
$STYLESHEET
  1

  9
$XEDIT
290
     1
  9
$CEPSNTYPE
380
     0
  9
$PSTYLEMODE
290
     1
  9
$FINGERPRINTGUID
  2
{6DDA7BC1-DD24-406F-9BF3-2680F2EA7215}
  9
$VERSIONGUID
  2
{FAEB1C32-E019-11D5-929B-00C0DF256EC4}
  9
$EXTNAMES
290
     1
  9
$PSVPSCALE
 40
0.0
  9
$OLESTARTUP
290
     0
  9
$SORTENTS
280
   127
  9
$INDEXCTL
280
     0
  9
$HIDETEXT
280
     1
  9
$XCLIPFRAME
290
     0
  9
$HALOGAP
280
     0
  9
$OBSCOLOR
 70
   257
  9
$OBSLTYPE
280
     0
  9
$INTERSECTIONDISPLAY
280
     0
  9
$INTERSECTIONCOLOR
 70
   257
  9
$DIMASSOC
280
     2
  9
$PROJECTNAME
  1

  9
$CAMERADISPLAY
290
     0
  9
$LENSLENGTH
 40
50.0
  9
$CAMERAHEIGHT
 40
0.0
  9
$STEPSPERSEC
 40
2.0
  9
$STEPSIZE
 40
6.0
  9
$3DDWFPREC
 40
2.0
  9
$PSOLWIDTH
 40
5.0
  9
$PSOLHEIGHT
 40
80.0
  9
$LOFTANG1
 40
1.5707963268
  9
$LOFTANG2
 40
1.5707963268
  9
$LOFTMAG1
 40
0.0
  9
$LOFTMAG2
 40
0.0
  9
$LOFTPARAM
 70
     7
  9
$LOFTNORMALS
280
     1
  9
$LATITUDE
 40
37.795
  9
$LONGITUDE
 40
-122.394
  9
$NORTHDIRECTION
 40
0.0
  9
$TIMEZONE
 70
 -8000
  9
$LIGHTGLYPHDISPLAY
280
     1
  9
$TILEMODELIGHTSYNCH
280
     1
  9
$CMATERIAL
347
44
  9
$SOLIDHIST
280
     0
  9
$SHOWHIST
280
     1
  9
$DWFFRAME
280
     2
  9
$DGNFRAME
280
     2
  9
$REALWORLDSCALE
290
     1
  9
$INTERFERECOLOR
 62
   256
  9
$CSHADOW
280
     0
  9
$SHADOWPLANELOCATION
 40
0.0
  0
ENDSEC
  0
SECTION
  2
CLASSES
  0
CLASS
  1
ACDBDICTIONARYWDFLT
  2
AcDbDictionaryWithDefault
  3
ObjectDBX Classes
 90
        0
 91
        4
280
     0
281
     0
  0
CLASS
  1
VISUALSTYLE
  2
AcDbVisualStyle
  3
ObjectDBX Classes
 90
     4095
 91
        4
280
     0
281
     0
  0
CLASS
  1
MATERIAL
  2
AcDbMaterial
  3
ObjectDBX Classes
 90
     1153
 91
        4
280
     0
281
     0
  0
CLASS
  1
SCALE
  2
AcDbScale
  3
ObjectDBX Classes
 90
     1153
 91
        4
280
     0
281
     0
  0
CLASS
  1
TABLESTYLE
  2
AcDbTableStyle
  3
ObjectDBX Classes
 90
     4095
 91
        4
280
     0
281
     0
  0
CLASS
  1
MLEADERSTYLE
  2
AcDbMLeaderStyle
  3
ACDB_MLEADERSTYLE_CLASS
 90
     4095
 91
        4
280
     0
281
     0
  0
CLASS
  1
SUN
  2
AcDbSun
  3
SCENEOE
 90
     1153
 91
        4
280
     0
281
     0
  0
CLASS
  1
DICTIONARYVAR
  2
AcDbDictionaryVar
  3
ObjectDBX Classes
 90
        0
 91
        4
280
     0
281
     0
  0
CLASS
  1
CELLSTYLEMAP
  2
AcDbCellStyleMap
  3
ObjectDBX Classes
 90
     1152
 91
        4
280
     0
281
     0
  0
ENDSEC
  0
SECTION
  2
TABLES
  0
TABLE
  2
VPORT
  5
8
330
0
100
AcDbSymbolTable
 70
     1
  0
VPORT
  5
29
330
8
100
AcDbSymbolTableRecord
100
AcDbViewportTableRecord
  2
*Active
 70
     0
 10
0.0
 20
0.0
 11
1.0
 21
1.0
 12
344.7136829649
 22
-71.7588603704
 13
0.0
 23
0.0
 14
10.0
 24
10.0
 15
10.0
 25
10.0
 16
0.0
 26
0.0
 36
1.0
 17
0.0
 27
0.0
 37
0.0
 40
429.5333051889
 41
1.7043886143
 42
50.0
 43
0.0
 44
0.0
 50
0.0
 51
0.0
 71
     0
 72
   100
 73
     1
 74
     3
 75
     0
 76
     0
 77
     0
 78
     0
281
     0
 65
     1
110
0.0
120
0.0
130
0.0
111
1.0
121
0.0
131
0.0
112
0.0
122
1.0
132
0.0
 79
     0
146
0.0
348
2F
 60
     3
 61
     5
292
     1
282
     1
141
0.0
142
0.0
 63
   250
361
6D
  0
ENDTAB
  0
TABLE
  2
LTYPE
  5
5
330
0
100
AcDbSymbolTable
 70
     6
  0
LTYPE
  5
14
330
5
100
AcDbSymbolTableRecord
100
AcDbLinetypeTableRecord
  2
ByBlock
 70
     0
  3

 72
    65
 73
     0
 40
0.0
  0
LTYPE
  5
15
330
5
100
AcDbSymbolTableRecord
100
AcDbLinetypeTableRecord
  2
ByLayer
 70
     0
  3

 72
    65
 73
     0
 40
0.0
  0
LTYPE
  5
16
330
5
100
AcDbSymbolTableRecord
100
AcDbLinetypeTableRecord
  2
Continuous
 70
     0
  3
Solid line
 72
    65
 73
     0
 40
0.0
  0
LTYPE
  5
6E
330
5
100
AcDbSymbolTableRecord
100
AcDbLinetypeTableRecord
  2
HIDDEN
 70
     0
  3
Hidden __ __ __ __ __ __ __ __ __ __ __ __ __ __
 72
    65
 73
     2
 40
1.905
 49
1.27
 74
     0
 49
-0.635
 74
     0
  0
LTYPE
  5
6F
330
5
100
AcDbSymbolTableRecord
100
AcDbLinetypeTableRecord
  2
PHANTOM
 70
     0
  3
Phantom ______  __  __  ______  __  __  ______
 72
    65
 73
     6
 40
12.7
 49
6.35
 74
     0
 49
-1.27
 74
     0
 49
1.27
 74
     0
 49
-1.27
 74
     0
 49
1.27
 74
     0
 49
-1.27
 74
     0
  0
LTYPE
  5
70
330
5
100
AcDbSymbolTableRecord
100
AcDbLinetypeTableRecord
  2
CENTER
 70
     0
  3
Center ____ _ ____ _ ____ _ ____ _ ____ _ ____
 72
    65
 73
     4
 40
10.16
 49
6.35
 74
     0
 49
-1.27
 74
     0
 49
1.27
 74
     0
 49
-1.27
 74
     0
  0
LTYPE
  5
71
330
5
100
AcDbSymbolTableRecord
100
AcDbLinetypeTableRecord
  2
CENTERX2
 70
     0
  3
Center (2x) ________  __  ________  __  _____
 72
    65
 73
     4
 40
20.32
 49
12.7
 74
     0
 49
-2.54
 74
     0
 49
2.54
 74
     0
 49
-2.54
 74
     0
  0
LTYPE
  5
72
330
5
100
AcDbSymbolTableRecord
100
AcDbLinetypeTableRecord
  2
DOT2
 70
     0
  3
Dot (.5x) ........................................
 72
    65
 73
     2
 40
0.635
 49
0.0
 74
     0
 49
-0.635
 74
     0
  0
ENDTAB
  0
TABLE
  2
LAYER
  5
2
330
0
100
AcDbSymbolTable
 70
     1
  0
LAYER
  5
10
330
2
100
AcDbSymbolTableRecord
100
AcDbLayerTableRecord
  2
0
 70
     0
 62
     7
  6
Continuous
370
    -3
390
F
347
46
  0
ENDTAB
  0
TABLE
  2
STYLE
  5
3
330
0
100
AcDbSymbolTable
 70
     1
  0
STYLE
  5
11
330
3
100
AcDbSymbolTableRecord
100
AcDbTextStyleTableRecord
  2
Standard
 70
     0
 40
0.0
 41
1.0
 50
0.0
 71
     0
 42
3.5
  3
txt
  4

  0
ENDTAB
  0
TABLE
  2
VIEW
  5
6
330
0
100
AcDbSymbolTable
 70
     0
  0
ENDTAB
  0
TABLE
  2
UCS
  5
7
330
0
100
AcDbSymbolTable
 70
     0
  0
ENDTAB
  0
TABLE
  2
APPID
  5
9
330
0
100
AcDbSymbolTable
 70
     2
  0
APPID
  5
12
330
9
100
AcDbSymbolTableRecord
100
AcDbRegAppTableRecord
  2
ACAD
 70
     0
  0
APPID
  5
450
330
9
100
AcDbSymbolTableRecord
100
AcDbRegAppTableRecord
  2
ACAD_MLEADERVER
 70
     0
  0
ENDTAB
  0
TABLE
  2
DIMSTYLE
  5
A
330
0
100
AcDbSymbolTable
 70
     1
100
AcDbDimStyleTable
  0
DIMSTYLE
105
27
330
A
100
AcDbSymbolTableRecord
100
AcDbDimStyleTableRecord
  2
ISO-25
 70
     0
 41
2.5
 42
0.625
 43
3.75
 44
1.25
 73
     0
 74
     0
 77
     1
 78
     8
140
2.5
141
2.5
143
0.0393700787
147
0.625
171
     3
172
     1
178
     0
271
     2
272
     2
274
     3
278
    44
283
     0
284
     8
340
11
  0
ENDTAB
  0
TABLE
  2
BLOCK_RECORD
  5
1
330
0
100
AcDbSymbolTable
 70
     9
  0
BLOCK_RECORD
  5
1F
330
1
100
AcDbSymbolTableRecord
100
AcDbBlockTableRecord
  2
*Model_Space
340
22
 70
     0
280
     1
281
     0
  0
BLOCK_RECORD
  5
1B
330
1
100
AcDbSymbolTableRecord
100
AcDbBlockTableRecord
  2
*Paper_Space
340
1E
 70
     0
280
     1
281
     0
  0
BLOCK_RECORD
  5
23
330
1
100
AcDbSymbolTableRecord
100
AcDbBlockTableRecord
  2
*Paper_Space0
340
26
 70
     0
280
     1
281
     0
  0
BLOCK_RECORD
  5
194
330
1
100
AcDbSymbolTableRecord
100
AcDbBlockTableRecord
  2
*Paper_Space1
340
195
 70
     0
280
     1
281
     0
  0
BLOCK_RECORD
  5
1E0
330
1
100
AcDbSymbolTableRecord
100
AcDbBlockTableRecord
  2
*Paper_Space2
340
1E1
 70
     0
280
     1
281
     0
  0
BLOCK_RECORD
  5
22C
330
1
100
AcDbSymbolTableRecord
100
AcDbBlockTableRecord
  2
*Paper_Space3
340
22D
 70
     0
280
     1
281
     0
  0
BLOCK_RECORD
  5
278
330
1
100
AcDbSymbolTableRecord
100
AcDbBlockTableRecord
  2
*Paper_Space4
340
279
 70
     0
280
     1
281
     0
  0
BLOCK_RECORD
  5
2BD
330
1
100
AcDbSymbolTableRecord
100
AcDbBlockTableRecord
  2
*Paper_Space5
340
2BE
 70
     0
280
     1
281
     0
  0
BLOCK_RECORD
  5
32A
330
1
100
AcDbSymbolTableRecord
100
AcDbBlockTableRecord
  2
*Paper_Space6
340
32B
 70
     0
280
     1
281
     0
  0
BLOCK_RECORD
  5
382
330
1
100
AcDbSymbolTableRecord
100
AcDbBlockTableRecord
  2
*Paper_Space7
340
383
 70
     0
280
     1
281
     0
  0
BLOCK_RECORD
  5
3DF
330
1
100
AcDbSymbolTableRecord
100
AcDbBlockTableRecord
  2
*Paper_Space8
340
3E0
 70
     0
280
     1
281
     0
  0
ENDTAB
  0
ENDSEC
  0
SECTION
  2
BLOCKS
  0
BLOCK
  5
20
330
1F
100
AcDbEntity
  8
0
100
AcDbBlockBegin
  2
*Model_Space
 70
     0
 10
0.0
 20
0.0
 30
0.0
  3
*Model_Space
  1

  0
ENDBLK
  5
21
330
1F
100
AcDbEntity
  8
0
100
AcDbBlockEnd
  0
BLOCK
  5
1C
330
1B
100
AcDbEntity
 67
     1
  8
0
100
AcDbBlockBegin
  2
*Paper_Space
 70
     0
 10
0.0
 20
0.0
 30
0.0
  3
*Paper_Space
  1

  0
ENDBLK
  5
1D
330
1B
100
AcDbEntity
 67
     1
  8
0
100
AcDbBlockEnd
  0
BLOCK
  5
24
330
23
100
AcDbEntity
  8
0
100
AcDbBlockBegin
  2
*Paper_Space0
 70
     0
 10
0.0
 20
0.0
 30
0.0
  3
*Paper_Space0
  1

  0
SPLINE
  5
14E
330
23
100
AcDbEntity
  8
0
  6
Continuous
 62
     7
370
    25
100
AcDbSpline
210
0.0
220
0.0
230
1.0
 70
     8
 71
     3
 72
    11
 73
     7
 74
     0
 42
0.000000001
 43
0.00000001
 40
0.0
 40
0.0
 40
0.0
 40
0.0
 40
0.2478968662457695
 40
0.4990428894398007
 40
0.7536924078478422
 40
1.0
 40
1.0
 40
1.0
 40
1.0
 10
93.38749334237484
 20
-116.9356064320199
 30
0.0
 10
93.41066930134717
 20
-116.9281901933997
 30
0.0
 10
93.45732498403592
 20
-116.9132605123359
 30
0.0
 10
93.24850080579262
 20
-116.9349704379388
 30
0.0
 10
93.17524902124086
 20
-116.9336356372963
 30
0.0
 10
93.26150727887695
 20
-116.9210220054771
 30
0.0
 10
93.30391822243628
 20
-116.9148202105207
 30
0.0
  0
LWPOLYLINE
  5
158
330
23
100
AcDbEntity
  8
0
  6
Continuous
 62
     7
370
    25
100
AcDbPolyline
 90
        5
 70
   128
 43
0.0
 10
78.7429482285
 20
-116.6860818408
 10
62.8714741571
 20
-116.6853637224
 10
47.0000000711
 20
-116.6851207026
 10
31.1285259213
 20
-116.6853637224
 10
15.2570517715
 20
-116.6860818408
  0
LWPOLYLINE
  5
15F
330
23
100
AcDbEntity
  8
0
  6
Continuous
 62
     7
370
    25
100
AcDbPolyline
 90
        4
 70
   128
 43
0.0
 10
11.3975569427
 20
-116.5630975769
 10
3.8712664163
 20
-116.5605971964
 10
-1.7705214323
 20
-116.5588619642
 10
-2.0330693358
 20
-116.5587839274
  0
SPLINE
  5
160
330
23
100
AcDbEntity
  8
0
  6
Continuous
 62
     7
370
    25
100
AcDbSpline
210
0.0
220
0.0
230
1.0
 70
     8
 71
     3
 72
     8
 73
     4
 74
     0
 42
0.000000001
 43
0.00000001
 40
0.0
 40
0.0
 40
0.0
 40
0.0
 40
1.0
 40
1.0
 40
1.0
 40
1.0
 10
-2.033069335832749
 20
-116.558783927436
 30
0.0
 10
-3.833672034981139
 20
-116.3144516004691
 30
0.0
 10
-5.632637021964704
 20
-116.0513070215187
 30
0.0
 10
-7.429846638572157
 20
-115.7679986613254
 30
0.0
  0
SPLINE
  5
162
330
23
100
AcDbEntity
  8
0
  6
Continuous
 62
     7
370
    25
100
AcDbSpline
210
0.0
220
0.0
230
1.0
 70
     8
 71
     3
 72
     8
 73
     4
 74
     0
 42
0.000000001
 43
0.00000001
 40
0.0
 40
0.0
 40
0.0
 40
0.0
 40
1.0
 40
1.0
 40
1.0
 40
1.0
 10
96.03306933585554
 20
-116.5587839274329
 30
0.0
 10
98.02379285216506
 20
-116.28865320436
 30
0.0
 10
100.0128115292202
 20
-115.9954380359893
 30
0.0
 10
102.0000000000001
 20
-115.6774408850758
 30
0.0
  0
LWPOLYLINE
  5
163
330
23
100
AcDbEntity
  8
0
  6
Continuous
 62
     7
370
    25
100
AcDbPolyline
 90
        4
 70
   128
 43
0.0
 10
96.0330693359
 20
-116.5587839274
 10
92.0447771918
 20
-116.5599940477
 10
84.5189050108
 20
-116.5624416279
 10
82.6024430573
 20
-116.5630975769
  0
SPLINE
  5
165
330
23
100
AcDbEntity
  8
0
  6
Continuous
 62
     7
370
    25
100
AcDbSpline
210
0.0
220
0.0
230
1.0
 70
     8
 71
     3
 72
    12
 73
     8
 74
     0
 42
0.000000001
 43
0.00000001
 40
0.0
 40
0.0
 40
0.0
 40
0.0
 40
0.5
 40
0.5
 40
0.75
 40
0.75
 40
1.0
 40
1.0
 40
1.0
 40
1.0
 10
96.03306933582878
 20
-116.5587839274365
 30
0.0
 10
89.82994385187298
 20
-117.3677711931656
 30
0.0
 10
83.61717707938399
 20
-118.1770124469344
 30
0.0
 10
74.26207669590262
 20
-119.3916143427847
 30
0.0
 10
71.1376533584498
 20
-119.7966114837333
 30
0.0
 10
64.86612924329249
 20
-120.6069060432078
 30
0.0
 10
61.72096595366067
 20
-121.0122847101869
 30
0.0
 10
58.54614351736704
 20
-121.4174629723297
 30
0.0
  0
SPLINE
  5
166
330
23
100
AcDbEntity
  8
0
  6
Continuous
 62
     7
370
    25
100
AcDbSpline
210
0.0
220
0.0
230
1.0
 70
     8
 71
     3
 72
     8
 73
     4
 74
     0
 42
0.000000001
 43
0.00000001
 40
0.0000000000000005
 40
0.0000000000000005
 40
0.0000000000000005
 40
0.0000000000000005
 40
0.0000335133614906
 40
0.0000335133614906
 40
0.0000335133614906
 40
0.0000335133614906
 10
58.57774737997312
 20
-121.4171717353937
 30
0.0
 10
58.56721457184627
 20
-121.4172686264471
 30
0.0
 10
58.55667994815195
 20
-121.4173657055579
 30
0.0
 10
58.54614351736592
 20
-121.4174629723297
 30
0.0
  0
SPLINE
  5
167
330
23
100
AcDbEntity
  8
0
  6
Continuous
 62
     7
370
    25
100
AcDbSpline
210
0.0
220
0.0
230
1.0
 70
     8
 71
     3
 72
     8
 73
     4
 74
     0
 42
0.000000001
 43
0.00000001
 40
0.0
 40
0.0
 40
0.0
 40
0.0
 40
1.0
 40
1.0
 40
1.0
 40
1.0
 10
54.10489417139574
 20
-121.464346019127
 30
0.0
 10
55.61845961558959
 20
-121.4478168580313
 30
0.0
 10
57.11279196502051
 20
-121.4318332684611
 30
0.0
 10
58.57774737997273
 20
-121.4171717353937
 30
0.0
  0
SPLINE
  5
168
330
23
100
AcDbEntity
  8
0
  6
Continuous
 62
     7
370
    25
100
AcDbSpline
210
0.0
220
0.0
230
1.0
 70
     8
 71
     3
 72
    12
 73
     8
 74
     0
 42
0.000000001
 43
0.00000001
 40
0.0
 40
0.0
 40
0.0
 40
0.0
 40
0.4999999999999998
 40
0.4999999999999998
 40
0.7499999999999999
 40
0.7499999999999999
 40
1.0
 40
1.0
 40
1.0
 40
1.0
 10
78.74294822847757
 20
-116.6860818408072
 30
0.0
 10
74.64306694471135
 20
-117.482542693153
 30
0.0
 10
70.54272173535159
 20
-118.2789937047368
 30
0.0
 10
64.38808358682286
 20
-119.4736051821277
 30
0.0
 10
62.33589563640746
 20
-119.8717979918543
 30
0.0
 10
58.22708422266948
 20
-120.6681289395448
 30
0.0
 10
56.1718635965503
 20
-121.0662601704857
 30
0.0
 10
54.10489417139564
 20
-121.464346019127
 30
0.0
  0
SPLINE
  5
169
330
23
100
AcDbEntity
  8
0
  6
Continuous
 62
     7
370
    25
100
AcDbSpline
210
0.0
220
0.0
230
1.0
 70
     8
 71
     3
 72
    12
 73
     8
 74
     0
 42
0.000000001
 43
0.00000001
 40
0.0
 40
0.0
 40
0.0
 40
0.0
 40
0.5
 40
0.5
 40
0.75
 40
0.75
 40
1.0
 40
1.0
 40
1.0
 40
1.0
 10
15.25705177152248
 20
-116.6860818408072
 30
0.0
 10
19.35693310275788
 20
-117.4825427023746
 30
0.0
 10
23.45727835958689
 20
-118.2789937231801
 30
0.0
 10
29.61191657948709
 20
-119.4736052144008
 30
0.0
 10
31.66410459336855
 20
-119.8717980364161
 30
0.0
 10
35.77291590348436
 20
-120.6681289639653
 30
0.0
 10
37.82813618394776
 20
-121.0662601283983
 30
0.0
 10
39.89510603153845
 20
-121.4643460582107
 30
0.0
  0
SPLINE
  5
16A
330
23
100
AcDbEntity
  8
0
  6
Continuous
 62
     7
370
    25
100
AcDbSpline
210
0.0
220
0.0
230
1.0
 70
     8
 71
     3
 72
     8
 73
     4
 74
     0
 42
0.000000001
 43
0.00000001
 40
0.0
 40
0.0
 40
0.0
 40
0.0
 40
1.0
 40
1.0
 40
1.0
 40
1.0
 10
35.42224988446696
 20
-121.4171717100985
 30
0.0
 10
36.88720654456306
 20
-121.4318332477067
 30
0.0
 10
38.38154116397396
 20
-121.4478170917594
 30
0.0
 10
39.8951060315374
 20
-121.4643460582107
 30
0.0
  0
SPLINE
  5
16B
330
23
100
AcDbEntity
  8
0
  6
Continuous
 62
     7
370
    25
100
AcDbSpline
210
0.0
220
0.0
230
1.0
 70
     8
 71
     3
 72
     8
 73
     4
 74
     0
 42
0.000000001
 43
0.00000001
 40
0.0000000000000006
 40
0.0000000000000006
 40
0.0000000000000006
 40
0.0000000000000006
 40
0.0000335162616681
 40
0.0000335162616681
 40
0.0000335162616681
 40
0.0000335162616681
 10
35.45385648141996
 20
-121.4174629721745
 30
0.0
 10
35.44331913895643
 20
-121.4173656970006
 30
0.0
 10
35.43278360381863
 20
-121.4172686095104
 30
0.0
 10
35.42224988446569
 20
-121.4171717100984
 30
0.0
  0
SPLINE
  5
16C
330
23
100
AcDbEntity
  8
0
  6
Continuous
 62
     7
370
    25
100
AcDbSpline
210
0.0
220
0.0
230
1.0
 70
     8
 71
     3
 72
    12
 73
     8
 74
     0
 42
0.000000001
 43
0.00000001
 40
0.0
 40
0.0
 40
0.0
 40
0.0
 40
0.5
 40
0.5
 40
0.75
 40
0.75
 40
1.0
 40
1.0
 40
1.0
 40
1.0
 10
-2.033069335832749
 20
-116.5587839274359
 30
0.0
 10
4.170058258383347
 20
-117.3677714683768
 30
0.0
 10
10.3828271748822
 20
-118.1770130012928
 30
0.0
 10
19.73793115886674
 20
-119.3916153615869
 30
0.0
 10
22.86235484589339
 20
-119.7966125447676
 30
0.0
 10
29.13386945120994
 20
-120.6069058735194
 30
0.0
 10
32.27902159884233
 20
-121.0122831216072
 30
0.0
 10
35.45385648141996
 20
-121.4174629721745
 30
0.0
  0
SPLINE
  5
16E
330
23
100
AcDbEntity
  8
0
  6
Continuous
 62
     7
370
    25
100
AcDbSpline
210
0.0
220
0.0
230
1.0
 70
     8
 71
     3
 72
    14
 73
    10
 74
     0
 42
0.000000001
 43
0.00000001
 40
0.0
 40
0.0
 40
0.0
 40
0.0
 40
0.25
 40
0.25
 40
0.5
 40
0.5
 40
0.75
 40
0.75
 40
1.0
 40
1.0
 40
1.0
 40
1.0
 10
39.88963139766294
 20
-121.4643678225196
 30
0.0
 10
41.06186453784238
 20
-121.4605221301878
 30
0.0
 10
42.24160426397966
 20
-121.4576650415704
 30
0.0
 10
44.61605677108737
 20
-121.4537759167503
 30
0.0
 10
45.80948177114941
 20
-121.4528023365919
 30
0.0
 10
48.19259079904293
 20
-121.4528036637507
 30
0.0
 10
49.38695154294176
 20
-121.453781151211
 30
0.0
 10
51.75991625004706
 20
-121.4576678675725
 30
0.0
 10
52.9392800934067
 20
-121.4605243470862
 30
0.0
 10
54.11149866326864
 20
-121.4643722782132
 30
0.0
  0
SPLINE
  5
170
330
23
100
AcDbEntity
  8
0
  6
Continuous
 62
     7
370
    25
100
AcDbSpline
210
0.0
220
0.0
230
1.0
 70
     8
 71
     3
 72
    15
 73
    11
 74
     0
 42
0.000000001
 43
0.00000001
 40
0.0
 40
0.0
 40
0.0
 40
0.0
 40
0.0663550910807772
 40
0.2018746470572371
 40
0.3412610959759718
 40
0.477999260607946
 40
0.6189182353881554
 40
0.7514880388538103
 40
0.8881653210697135
 40
1.0
 40
1.0
 40
1.0
 40
1.0
 10
10.63181882719222
 20
-119.1587218979868
 30
0.0
 10
10.60260447163652
 20
-119.1529590148241
 30
0.0
 10
10.51372451350901
 20
-119.135426373612
 30
0.0
 10
11.50934903809819
 20
-119.3318428660209
 30
0.0
 10
13.5054816497493
 20
-119.6996493621267
 30
0.0
 10
16.56716110574497
 20
-120.1852140203986
 30
0.0
 10
20.49196840036305
 20
-120.6527277860763
 30
0.0
 10
25.24560347151594
 20
-121.0221939828058
 30
0.0
 10
30.25589289457731
 20
-121.2659681510762
 30
0.0
 10
33.84065262664659
 20
-121.3704460923348
 30
0.0
 10
35.45385648141941
 20
-121.4174629721745
 30
0.0
  0
SPLINE
  5
172
330
23
100
AcDbEntity
  8
0
  6
Continuous
 62
     7
370
    25
100
AcDbSpline
210
0.0
220
0.0
230
1.0
 70
     8
 71
     3
 72
    15
 73
    11
 74
     0
 42
0.000000001
 43
0.00000001
 40
0.0
 40
0.0
 40
0.0
 40
0.0
 40
0.1302231472599995
 40
0.2642237281622872
 40
0.3941700886240297
 40
0.5241071134859482
 40
0.6576997088719467
 40
0.7902845660396429
 40
0.926452727484657
 40
1.0
 40
1.0
 40
1.0
 40
1.0
 10
58.54614351736503
 20
-121.4174629723297
 30
0.0
 10
60.42133875294875
 20
-121.3620270511757
 30
0.0
 10
64.22612374396769
 20
-121.249547157473
 30
0.0
 10
69.33391283164542
 20
-120.9847447945343
 30
0.0
 10
73.8216062878237
 20
-120.6183080806226
 30
0.0
 10
77.53652269261202
 20
-120.1683868928373
 30
0.0
 10
80.4396860758152
 20
-119.7083730002551
 30
0.0
 10
82.42776972846616
 20
-119.343939442012
 30
0.0
 10
83.45729539542873
 20
-119.1411773672895
 30
0.0
 10
83.39670809763817
 20
-119.1531042903881
 30
0.0
 10
83.37546011213028
 20
-119.1572870662899
 30
0.0
  0
SPLINE
  5
174
330
23
100
AcDbEntity
  8
0
  6
Continuous
 62
     7
370
    25
100
AcDbSpline
210
0.0
220
0.0
230
1.0
 70
     8
 71
     3
 72
    14
 73
    10
 74
     0
 42
0.000000001
 43
0.00000001
 40
0.0
 40
0.0
 40
0.0
 40
0.0
 40
0.25
 40
0.25
 40
0.5
 40
0.5
 40
0.75
 40
0.75
 40
1.0
 40
1.0
 40
1.0
 40
1.0
 10
53.23088021538796
 20
-126.1529987165122
 30
0.0
 10
52.20405540448675
 20
-126.1493196780617
 30
0.0
 10
51.17097995379483
 20
-126.1467056723417
 30
0.0
 10
49.09240357647943
 20
-126.1430548375458
 30
0.0
 10
48.04579369602913
 20
-126.1421343146288
 30
0.0
 10
45.95722918689676
 20
-126.1421369343317
 30
0.0
 10
44.91121790578062
 20
-126.1430411060024
 30
0.0
 10
42.83132347703522
 20
-126.1467020037609
 30
0.0
 10
41.79791751962575
 20
-126.1493117886749
 30
0.0
 10
40.77108049949063
 20
-126.1530207087225
 30
0.0
  0
SPLINE
  5
176
330
23
100
AcDbEntity
  8
0
  6
Continuous
 62
     7
370
    25
100
AcDbSpline
210
0.0
220
0.0
230
1.0
 70
     8
 71
     3
 72
     8
 73
     4
 74
     0
 42
0.000000001
 43
0.00000001
 40
0.0
 40
0.0
 40
0.0
 40
0.0
 40
0.0066273205339822
 40
0.0066273205339822
 40
0.0066273205339822
 40
0.0066273205339822
 10
57.18132441231227
 20
-126.1085749105921
 30
0.0
 10
57.64876754026588
 20
-124.5447471840391
 30
0.0
 10
58.1137209181285
 20
-122.9809524610858
 30
0.0
 10
58.5777473799714
 20
-121.4171717353938
 30
0.0
  0
SPLINE
  5
177
330
23
100
AcDbEntity
  8
0
  6
Continuous
 62
     7
370
    25
100
AcDbSpline
210
0.0
220
0.0
230
1.0
 70
     8
 71
     3
 72
     8
 73
     4
 74
     0
 42
0.000000001
 43
0.00000001
 40
0.0
 40
0.0
 40
0.0
 40
0.0
 40
1.0
 40
1.0
 40
1.0
 40
1.0
 10
57.18132441230866
 20
-126.1085749105921
 30
0.0
 10
55.88769114562497
 20
-126.1224342760065
 30
0.0
 10
54.56779486369317
 20
-126.1374603457159
 30
0.0
 10
53.23088021538675
 20
-126.1529987165123
 30
0.0
  0
SPLINE
  5
178
330
23
100
AcDbEntity
  8
0
  6
Continuous
 62
     7
370
    25
100
AcDbSpline
210
0.0
220
0.0
230
1.0
 70
     8
 71
     3
 72
     8
 73
     4
 74
     0
 42
0.000000001
 43
0.00000001
 40
0.0
 40
0.0
 40
0.0
 40
0.0
 40
1.0
 40
1.0
 40
1.0
 40
1.0
 10
40.77108049949063
 20
-126.1530207087226
 30
0.0
 10
39.43349485647468
 20
-126.1374694131314
 30
0.0
 10
38.11293923477626
 20
-126.1224409516653
 30
0.0
 10
36.81867222575836
 20
-126.1085748282
 30
0.0
  0
SPLINE
  5
179
330
23
100
AcDbEntity
  8
0
  6
Continuous
 62
     7
370
    25
100
AcDbSpline
210
0.0
220
0.0
230
1.0
 70
     8
 71
     3
 72
     8
 73
     4
 74
     0
 42
0.000000001
 43
0.00000001
 40
0.0
 40
0.0
 40
0.0
 40
0.0
 40
0.0066273204602603
 40
0.0066273204602603
 40
0.0066273204602603
 40
0.0066273204602603
 10
35.42224988446907
 20
-121.4171717100986
 30
0.0
 10
35.88627613251472
 20
-122.9809524163079
 30
0.0
 10
36.35122929365997
 20
-124.5447471200869
 30
0.0
 10
36.81867222575647
 20
-126.1085748282
 30
0.0
  0
SPLINE
  5
17A
330
23
100
AcDbEntity
  8
0
  6
Continuous
 62
     7
370
    25
100
AcDbSpline
210
0.0
220
0.0
230
1.0
 70
     8
 71
     3
 72
    15
 73
    11
 74
     0
 42
0.000000001
 43
0.00000001
 40
0.0
 40
0.0
 40
0.0
 40
0.0
 40
0.1211220711851736
 40
0.2451620997269578
 40
0.3774670560904346
 40
0.513600257468609
 40
0.6461797856521629
 40
0.782569984023394
 40
0.915426710943777
 40
1.0
 40
1.0
 40
1.0
 40
1.0
 10
36.81867222575836
 20
-126.1085748282
 30
0.0
 10
35.27922509513476
 20
-126.0622270280631
 30
0.0
 10
32.16324394265497
 20
-125.9684148608166
 30
0.0
 10
27.79100894962511
 20
-125.7485688602265
 30
0.0
 10
23.73071965656781
 20
-125.4301477667261
 30
0.0
 10
20.24628198942197
 20
-125.0029291324669
 30
0.0
 10
17.47392975021245
 20
-124.5308476697516
 30
0.0
 10
15.58969683000355
 20
-124.1436912672713
 30
0.0
 10
14.57983222328407
 20
-123.9180889442615
 30
0.0
 10
14.60376654450551
 20
-123.9232205209268
 30
0.0
 10
14.61307622632629
 20
-123.9252165393453
 30
0.0
  0
SPLINE
  5
17B
330
23
100
AcDbEntity
  8
0
  6
Continuous
 62
     7
370
    25
100
AcDbSpline
210
0.0
220
0.0
230
1.0
 70
     8
 71
     3
 72
    15
 73
    11
 74
     0
 42
0.000000001
 43
0.00000001
 40
0.0
 40
0.0
 40
0.0
 40
0.0
 40
0.0523302342930123
 40
0.1821315983492548
 40
0.3156596916652782
 40
0.4463660681017732
 40
0.580703659143637
 40
0.7140140612676524
 40
0.8512530814642867
 40
1.0
 40
1.0
 40
1.0
 40
1.0
 10
79.38692377373205
 20
-123.9252165393321
 30
0.0
 10
79.41625886625009
 20
-123.9185808501613
 30
0.0
 10
79.51835753559905
 20
-123.8954858135891
 30
0.0
 10
78.75153315968252
 20
-124.0686382736505
 30
0.0
 10
77.15177308189509
 20
-124.4072100648357
 30
0.0
 10
74.6520886243604
 20
-124.8628337049014
 30
0.0
 10
71.41162652718852
 20
-125.3083812409558
 30
0.0
 10
67.41553174098608
 20
-125.6705810678017
 30
0.0
 10
62.69118359169812
 20
-125.9391170495144
 30
0.0
 10
59.06656165812036
 20
-126.0505937061914
 30
0.0
 10
57.18132441230861
 20
-126.1085749105921
 30
0.0
  0
LINE
  5
17D
330
23
100
AcDbEntity
  8
0
  6
Continuous
 62
     7
370
    25
100
AcDbLine
 10
0.2640083783
 20
-116.8581623699
 30
0.0
 11
10.6310991767
 21
-119.1619603252
 31
0.0
  0
LINE
  5
17E
330
23
100
AcDbEntity
  8
0
  6
Continuous
 62
     7
370
    25
100
AcDbLine
 10
83.376141071
 20
-119.1603513812
 30
0.0
 11
93.3874933424
 21
-116.935606432
 31
0.0
  0
LINE
  5
17F
330
23
100
AcDbEntity
  8
0
  6
Continuous
 62
     7
370
    25
100
AcDbLine
 10
10.4944931434
 20
-119.1316034288
 30
0.0
 11
14.5245767662
 21
-123.9289113802
 31
0.0
  0
LINE
  5
180
330
23
100
AcDbEntity
  8
0
  6
Continuous
 62
     7
370
    25
100
AcDbLine
 10
79.4754234591
 20
-123.9289111119
 30
0.0
 11
83.5301277732
 21
-119.1022953227
 31
0.0
  0
LINE
  5
181
330
23
100
AcDbEntity
  8
0
  6
Continuous
 62
     7
370
    25
100
AcDbLine
 10
14.5
 20
-123.9252158737
 30
0.0
 11
14.5
 21
-137.0
 31
0.0
  0
LINE
  5
182
330
23
100
AcDbEntity
  8
0
  6
Continuous
 62
     7
370
    25
100
AcDbLine
 10
79.5
 20
-137.0
 30
0.0
 11
79.5
 21
-123.9252158737
 31
0.0
  0
LINE
  5
183
330
23
100
AcDbEntity
  8
0
  6
Continuous
 62
     7
370
    25
100
AcDbLine
 10
665.0
 20
-8.5283876792
 30
0.0
 11
102.0
 21
-98.5283876792
 31
0.0
  0
LINE
  5
184
330
23
100
AcDbEntity
  8
0
  6
Continuous
 62
     7
370
    25
100
AcDbLine
 10
102.0
 20
-115.6774408851
 30
0.0
 11
102.0
 21
-98.5283876792
 31
0.0
  0
LINE
  5
185
330
23
100
AcDbEntity
  8
0
  6
Continuous
 62
     7
370
    25
100
AcDbLine
 10
102.0
 20
-112.0
 30
0.0
 11
82.3489376363
 21
-112.0
 31
0.0
  0
LINE
  5
186
330
23
100
AcDbEntity
  8
0
  6
Continuous
 62
     7
370
    25
100
AcDbLine
 10
82.3489376363
 20
-112.0
 30
0.0
 11
82.6024430573
 21
-116.5630975769
 31
0.0
  0
LINE
  5
187
330
23
100
AcDbEntity
  8
0
  6
Continuous
 62
     7
370
    25
100
AcDbLine
 10
82.6024430573
 20
-116.5630975769
 30
0.0
 11
78.7429482285
 21
-116.6860818408
 31
0.0
  0
LINE
  5
188
330
23
100
AcDbEntity
  8
0
  6
Continuous
 62
     7
370
    25
100
AcDbLine
 10
15.2570517715
 20
-116.6860818408
 30
0.0
 11
11.3975569427
 21
-116.5630975769
 31
0.0
  0
LINE
  5
189
330
23
100
AcDbEntity
  8
0
  6
Continuous
 62
     7
370
    25
100
AcDbLine
 10
11.3975569427
 20
-116.5630975769
 30
0.0
 11
11.6510623637
 21
-112.0
 31
0.0
  0
LINE
  5
18A
330
23
100
AcDbEntity
  8
0
  6
Continuous
 62
     7
370
    25
100
AcDbLine
 10
11.6510623637
 20
-112.0
 30
0.0
 11
-7.5135799422
 21
-112.0
 31
0.0
  0
LINE
  5
18B
330
23
100
AcDbEntity
  8
0
  6
Continuous
 62
     7
370
    25
100
AcDbLine
 10
665.0
 20
-8.5283876792
 30
0.0
 11
665.0
 21
0.0
 31
0.0
  0
LINE
  5
18C
330
23
100
AcDbEntity
  8
0
  6
Continuous
 62
     7
370
    25
100
AcDbLine
 10
-10.002468831
 20
0.0
 30
0.0
 11
-7.4298466386
 21
-115.7679986613
 31
0.0
  0
LINE
  5
18D
330
23
100
AcDbEntity
  8
0
  6
Continuous
 62
     7
370
    25
100
AcDbLine
 10
-10.002468831
 20
0.0
 30
0.0
 11
665.0
 21
0.0
 31
0.0
  0
LINE
  5
18E
330
23
100
AcDbEntity
  8
0
  6
Continuous
 62
     7
370
    25
100
AcDbLine
 10
54.1114986633
 20
-121.4643722782
 30
0.0
 11
54.1048941714
 21
-121.4643460191
 31
0.0
  0
LINE
  5
18F
330
23
100
AcDbEntity
  8
0
  6
Continuous
 62
     7
370
    25
100
AcDbLine
 10
39.8951060315
 20
-121.4643460582
 30
0.0
 11
39.8896313977
 21
-121.4643678225
 31
0.0
  0
LINE
  5
190
330
23
100
AcDbEntity
  8
0
  6
Continuous
 62
     7
370
    25
100
AcDbLine
 10
-2.0330693358
 20
-116.5587839274
 30
0.0
 11
0.2640083783
 21
-116.8581623699
 31
0.0
  0
LINE
  5
191
330
23
100
AcDbEntity
  8
0
  6
Continuous
 62
     7
370
    25
100
AcDbLine
 10
53.2308802154
 20
-126.1529987165
 30
0.0
 11
54.1114986633
 21
-121.4643722782
 31
0.0
  0
LINE
  5
192
330
23
100
AcDbEntity
  8
0
  6
Continuous
 62
     7
370
    25
100
AcDbLine
 10
39.8896313977
 20
-121.4643678225
 30
0.0
 11
40.7710804995
 21
-126.1530207087
 31
0.0
  0
LINE
  5
193
330
23
100
AcDbEntity
  8
0
  6
Continuous
 62
     7
370
    25
100
AcDbLine
 10
79.5
 20
-137.0
 30
0.0
 11
14.5
 21
-137.0
 31
0.0
  0
VIEWPORT
  5
43A
330
23
100
AcDbEntity
  8
0
100
AcDbViewport
 10
0.0
 20
0.0
 30
0.0
 40
205.6
 41
156.0
 68
     1
 69
     1
 12
344.7136829649
 22
-71.7588603704
 13
0.0
 23
0.0
 14
10.0
 24
10.0
 15
10.0
 25
10.0
 16
0.0
 26
0.0
 36
1.0
 17
0.0
 27
0.0
 37
0.0
 42
50.0
 43
0.0
 44
0.0
 45
555.4781190292
 50
0.0
 51
0.0
 72
   100
 90
   557152
  1

281
     0
 71
     1
 74
     0
110
0.0
120
0.0
130
0.0
111
1.0
121
0.0
131
0.0
112
0.0
122
1.0
132
0.0
 79
     0
146
0.0
170
     0
 61
     5
348
2F
292
     1
282
     1
141
0.0
142
0.0
 63
   256
361
43B
  0
ENDBLK
  5
25
330
23
100
AcDbEntity
  8
0
100
AcDbBlockEnd
  0
BLOCK
  5
196
330
194
100
AcDbEntity
  8
0
100
AcDbBlockBegin
  2
*Paper_Space1
 70
     0
 10
0.0
 20
0.0
 30
0.0
  3
*Paper_Space1
  1

  0
SPLINE
  5
19A
330
194
100
AcDbEntity
  8
0
  6
Continuous
 62
     7
370
    25
100
AcDbSpline
210
0.0
220
0.0
230
1.0
 70
     8
 71
     3
 72
    10
 73
     6
 74
     0
 42
0.000000001
 43
0.00000001
 40
0.0
 40
0.0
 40
0.0
 40
0.0
 40
0.3413307300121653
 40
0.6804986415780513
 40
1.0
 40
1.0
 40
1.0
 40
1.0
 10
45.27876714321069
 20
-118.5222729218771
 30
0.0
 10
46.81212518776351
 20
-118.58093346742
 30
0.0
 10
49.86912526019702
 20
-118.6978828600363
 30
0.0
 10
54.69336215376254
 20
-118.8818647738426
 30
0.0
 10
58.14113187360463
 20
-119.0122883844448
 30
0.0
 10
59.81354496346375
 20
-119.0755530950611
 30
0.0
  0
SPLINE
  5
19D
330
194
100
AcDbEntity
  8
0
  6
Continuous
 62
     7
370
    25
100
AcDbSpline
210
0.0
220
0.0
230
1.0
 70
     8
 71
     3
 72
    10
 73
     6
 74
     0
 42
0.000000001
 43
0.00000001
 40
0.0
 40
0.0
 40
0.0
 40
0.0
 40
0.3195021908081193
 40
0.6586701382081773
 40
1.0
 40
1.0
 40
1.0
 40
1.0
 10
260.1874562117374
 20
-119.0755153150681
 30
0.0
 10
261.8597553192135
 20
-119.012254880451
 30
0.0
 10
265.3072856208389
 20
-118.8818402529112
 30
0.0
 10
270.1311963898414
 20
-118.6978706839544
 30
0.0
 10
273.1879946003762
 20
-118.5809289343226
 30
0.0
 10
274.7212493686266
 20
-118.52227229987
 30
0.0
  0
SPLINE
  5
1A8
330
194
100
AcDbEntity
  8
0
  6
Continuous
 62
     7
370
    25
100
AcDbSpline
210
0.0
220
0.0
230
1.0
 70
     8
 71
     3
 72
     8
 73
     4
 74
     0
 42
0.000000001
 43
0.00000001
 40
0.0
 40
0.0
 40
0.0
 40
0.0
 40
1.0
 40
1.0
 40
1.0
 40
1.0
 10
9.890933712124545
 20
-116.5587839274329
 30
0.0
 10
11.88165722843407
 20
-116.28865320436
 30
0.0
 10
13.87067590548915
 20
-115.9954380359893
 30
0.0
 10
15.85786437626907
 20
-115.6774408850758
 30
0.0
  0
LWPOLYLINE
  5
1A9
330
194
100
AcDbEntity
  8
0
  6
Continuous
 62
     7
370
    25
100
AcDbPolyline
 90
        4
 70
   128
 43
0.0
 10
9.8909337121
 20
-116.5587839274
 10
5.902641568
 20
-116.5599940477
 10
-1.623230613
 20
-116.5624416279
 10
-3.5396925665
 20
-116.5630975769
  0
SPLINE
  5
1AB
330
194
100
AcDbEntity
  8
0
  6
Continuous
 62
     7
370
    25
100
AcDbSpline
210
0.0
220
0.0
230
1.0
 70
     8
 71
     3
 72
    22
 73
    18
 74
     0
 42
0.000000001
 43
0.00000001
 40
0.0
 40
0.0
 40
0.0
 40
0.0
 40
0.125
 40
0.125
 40
0.25
 40
0.25
 40
0.375
 40
0.375
 40
0.5
 40
0.5
 40
0.625
 40
0.625
 40
0.75
 40
0.75
 40
0.875
 40
0.875
 40
1.0
 40
1.0
 40
1.0
 40
1.0
 10
15.85786437626902
 20
-115.6774408850758
 30
0.0
 10
27.86971285886602
 20
-115.6217895557596
 30
0.0
 10
39.88152804656436
 20
-115.5582414893656
 30
0.0
 10
63.90511365798162
 20
-115.4205284335668
 30
0.0
 10
75.91687532548944
 20
-115.3462088644325
 30
0.0
 10
99.94044693038273
 20
-115.2061256209007
 30
0.0
 10
111.9522672857513
 20
-115.1409205724991
 30
0.0
 10
135.9760618005911
 20
-115.0483368112283
 30
0.0
 10
147.9880327196715
 20
-115.0217160235377
 30
0.0
 10
172.0120235380003
 20
-115.0217161037799
 30
0.0
 10
184.0239747812526
 20
-115.0483369114357
 30
0.0
 10
208.0477748435382
 20
-115.1409207756317
 30
0.0
 10
220.0595844515264
 20
-115.2061257960634
 30
0.0
 10
244.0831510621653
 20
-115.3462090261286
 30
0.0
 10
256.0949112381668
 20
-115.4205285814921
 30
0.0
 10
280.1184858208646
 20
-115.5582415636493
 30
0.0
 10
292.1302946802637
 20
-115.6217895906888
 30
0.0
 10
304.142135623731
 20
-115.6774408850758
 30
0.0
  0
SPLINE
  5
1AC
330
194
100
AcDbEntity
  8
0
  6
Continuous
 62
     7
370
    25
100
AcDbSpline
210
0.0
220
0.0
230
1.0
 70
     8
 71
     3
 72
     8
 73
     4
 74
     0
 42
0.000000001
 43
0.00000001
 40
0.0
 40
0.0
 40
0.0
 40
0.0
 40
1.0
 40
1.0
 40
1.0
 40
1.0
 10
310.1090662878978
 20
-116.5587839274359
 30
0.0
 10
308.1183427715808
 20
-116.2886532043622
 30
0.0
 10
306.1293240945181
 20
-115.9954380359905
 30
0.0
 10
304.1421356237307
 20
-115.6774408850758
 30
0.0
  0
SPLINE
  5
1AD
330
194
100
AcDbEntity
  8
0
  6
Continuous
 62
     7
370
    25
100
AcDbSpline
210
0.0
220
0.0
230
1.0
 70
     8
 71
     3
 72
    12
 73
     8
 74
     0
 42
0.000000001
 43
0.00000001
 40
0.0
 40
0.0
 40
0.0
 40
0.0
 40
0.25
 40
0.25
 40
0.5
 40
0.5
 40
1.0
 40
1.0
 40
1.0
 40
1.0
 10
195.3431125193542
 20
-121.4174629721745
 30
0.0
 10
204.8901361360299
 20
-121.0122864003397
 30
0.0
 10
214.4469924282054
 20
-120.606908837817
 30
0.0
 10
233.5669302022074
 20
-119.7966136294947
 30
0.0
 10
243.1306193457578
 20
-119.3916162754653
 30
0.0
 10
271.8276193930154
 20
-118.1770135226351
 30
0.0
 10
290.9667777676428
 20
-117.3677717291014
 30
0.0
 10
310.1090662878978
 20
-116.5587839274359
 30
0.0
  0
SPLINE
  5
1AE
330
194
100
AcDbEntity
  8
0
  6
Continuous
 62
     7
370
    25
100
AcDbSpline
210
0.0
220
0.0
230
1.0
 70
     8
 71
     3
 72
    58
 73
    54
 74
     0
 42
0.000000001
 43
0.00000001
 40
0.0
 40
0.0
 40
0.0
 40
0.0
 40
0.0624999999999982
 40
0.0624999999999982
 40
0.1249999999999963
 40
0.1249999999999963
 40
0.1562499999999954
 40
0.1562499999999954
 40
0.1874999999999945
 40
0.1874999999999945
 40
0.2187499999999936
 40
0.2187499999999936
 40
0.2499999999999927
 40
0.2499999999999927
 40
0.3124999999999901
 40
0.3124999999999901
 40
0.343749999999989
 40
0.343749999999989
 40
0.3749999999999877
 40
0.3749999999999877
 40
0.4374999999999853
 40
0.4374999999999853
 40
0.453124999999985
 40
0.453124999999985
 40
0.4687499999999846
 40
0.4687499999999846
 40
0.4999999999999837
 40
0.4999999999999837
 40
0.5624999999999831
 40
0.5624999999999831
 40
0.5937499999999827
 40
0.5937499999999827
 40
0.609374999999983
 40
0.609374999999983
 40
0.6249999999999833
 40
0.6249999999999833
 40
0.6874999999999856
 40
0.6874999999999856
 40
0.7187499999999871
 40
0.7187499999999871
 40
0.7499999999999887
 40
0.7499999999999887
 40
0.7812499999999902
 40
0.7812499999999902
 40
0.8124999999999917
 40
0.8124999999999917
 40
0.8437499999999932
 40
0.8437499999999932
 40
0.8749999999999948
 40
0.8749999999999948
 40
0.9374999999999972
 40
0.9374999999999972
 40
1.0
 40
1.0
 40
1.0
 40
1.0
 10
124.6568874843022
 20
-121.4174629723297
 30
0.0
 10
125.2726739282841
 20
-121.3687029205389
 30
0.0
 10
126.0259514317563
 20
-121.3124642700963
 30
0.0
 10
127.7981879290692
 20
-121.1760495825975
 30
0.0
 10
128.8172186358677
 20
-121.0958679395821
 30
0.0
 10
130.5537691169577
 20
-120.9506242908208
 30
0.0
 10
131.1663768732735
 20
-120.8981352481783
 30
0.0
 10
132.4455220334241
 20
-120.7858747854032
 30
0.0
 10
133.1138852045845
 20
-120.7259463103937
 30
0.0
 10
134.5084868480381
 20
-120.5991033637269
 30
0.0
 10
135.234393629652
 20
-120.5322110289892
 30
0.0
 10
136.723678610229
 20
-120.3949698766909
 30
0.0
 10
137.4894008131498
 20
-120.3244100636952
 30
0.0
 10
139.8480010926471
 20
-120.1107015217459
 30
0.0
 10
141.5018532305461
 20
-119.9655094454336
 30
0.0
 10
144.1037736323694
 20
-119.7608644583827
 30
0.0
 10
144.9945034226917
 20
-119.6946717412683
 30
0.0
 10
146.7896258690675
 20
-119.571326909676
 30
0.0
 10
147.6964485658195
 20
-119.5139707578918
 30
0.0
 10
150.4441653158494
 20
-119.3576052443132
 30
0.0
 10
152.312147204196
 20
-119.2744002312604
 30
0.0
 10
154.6934989195085
 20
-119.2036573401946
 30
0.0
 10
155.1720958734491
 20
-119.1911577043829
 30
0.0
 10
156.1340339945138
 20
-119.1696052579399
 30
0.0
 10
156.6184319113214
 20
-119.1605396278635
 30
0.0
 10
158.0691099327744
 20
-119.13882738558
 30
0.0
 10
159.0331866388382
 20
-119.1316322718513
 30
0.0
 10
161.9165328382003
 20
-119.1315460028217
 30
0.0
 10
163.8269693502187
 20
-119.1602126146181
 30
0.0
 10
166.6750155482684
 20
-119.2440559833469
 30
0.0
 10
167.6214374158769
 20
-119.278744126178
 30
0.0
 10
169.0365766448051
 20
-119.3403859675146
 30
0.0
 10
169.508443043548
 20
-119.3625762082501
 30
0.0
 10
170.4434786410881
 20
-119.4096512298066
 30
0.0
 10
170.9072250541711
 20
-119.4345500698778
 30
0.0
 10
173.2073947938543
 20
-119.5652431760985
 30
0.0
 10
174.9886517729435
 20
-119.6897908048707
 30
0.0
 10
177.5732846827262
 20
-119.8926157300669
 30
0.0
 10
178.4201779668214
 20
-119.9628523315905
 30
0.0
 10
180.0837700489894
 20
-120.1058140397386
 30
0.0
 10
180.9031442335533
 20
-120.1787837260921
 30
0.0
 10
182.4944372139877
 20
-120.3229211342275
 30
0.0
 10
183.2662392136198
 20
-120.394043538612
 30
0.0
 10
184.7617870410283
 20
-120.5318626774285
 30
0.0
 10
185.486661013889
 20
-120.5986579373205
 30
0.0
 10
186.8823158516542
 20
-120.7256059020351
 30
0.0
 10
187.5508644758131
 20
-120.7855527662176
 30
0.0
 10
188.8298136963222
 20
-120.8978067661413
 30
0.0
 10
189.4412698798303
 20
-120.950213706358
 30
0.0
 10
191.1808326217773
 20
-121.0956999192524
 30
0.0
 10
192.2007684655075
 20
-121.1759740326321
 30
0.0
 10
193.9741613813221
 20
-121.3124704401695
 30
0.0
 10
194.7274656764319
 20
-121.3687139819705
 30
0.0
 10
195.343112519355
 20
-121.4174629721745
 30
0.0
  0
SPLINE
  5
1AF
330
194
100
AcDbEntity
  8
0
  6
Continuous
 62
     7
370
    25
100
AcDbSpline
210
0.0
220
0.0
230
1.0
 70
     8
 71
     3
 72
    12
 73
     8
 74
     0
 42
0.000000001
 43
0.00000001
 40
0.0
 40
0.0
 40
0.0
 40
0.0
 40
0.5
 40
0.5
 40
0.75
 40
0.75
 40
1.0
 40
1.0
 40
1.0
 40
1.0
 10
9.890933712115968
 20
-116.5587839274365
 30
0.0
 10
29.03320955102912
 20
-117.3677711931656
 30
0.0
 10
48.17235516423366
 20
-118.1770124469344
 30
0.0
 10
76.869335005235
 20
-119.3916143427847
 30
0.0
 10
86.43301913632554
 20
-119.7966114837333
 30
0.0
 10
105.552941658983
 20
-120.6069060432078
 30
0.0
 10
115.1098240395322
 20
-121.0122847101869
 30
0.0
 10
124.6568874843027
 20
-121.4174629723297
 30
0.0
  0
LWPOLYLINE
  5
1B5
330
194
100
AcDbEntity
  8
0
  6
Continuous
 62
     7
370
    25
100
AcDbPolyline
 90
        4
 70
   128
 43
0.0
 10
323.5396925665
 20
-116.5630975769
 10
321.6236489671
 20
-116.5624417696
 10
314.097358432
 20
-116.5599940477
 10
310.1090662879
 20
-116.5587839274
  0
SPLINE
  5
1B7
330
194
100
AcDbEntity
  8
0
  6
Continuous
 62
     7
370
    25
100
AcDbSpline
210
0.0
220
0.0
230
1.0
 70
     8
 71
     3
 72
     8
 73
     4
 74
     0
 42
0.000000001
 43
0.00000001
 40
0.0000000000000005
 40
0.0000000000000005
 40
0.0000000000000005
 40
0.0000000000000005
 40
0.0000335133614906
 40
0.0000335133614906
 40
0.0000335133614906
 40
0.0000335133614906
 10
124.6680345219247
 20
-121.4171717353937
 30
0.0
 10
124.6643137023588
 20
-121.4172686264471
 30
0.0
 10
124.6605980231611
 20
-121.4173657055579
 30
0.0
 10
124.6568874843024
 20
-121.4174629723297
 30
0.0
  0
SPLINE
  5
1B8
330
194
100
AcDbEntity
  8
0
  6
Continuous
 62
     7
370
    25
100
AcDbSpline
210
0.0
220
0.0
230
1.0
 70
     8
 71
     3
 72
     8
 73
     4
 74
     0
 42
0.000000001
 43
0.00000001
 40
0.0
 40
0.0
 40
0.0
 40
0.0
 40
1.0
 40
1.0
 40
1.0
 40
1.0
 10
123.4925963115291
 20
-121.464346019127
 30
0.0
 10
123.7914276444517
 20
-121.4478168580313
 30
0.0
 10
124.1841502034521
 20
-121.4318332684611
 30
0.0
 10
124.6680345219245
 20
-121.4171717353937
 30
0.0
  0
SPLINE
  5
1B9
330
194
100
AcDbEntity
  8
0
  6
Continuous
 62
     7
370
    25
100
AcDbSpline
210
0.0
220
0.0
230
1.0
 70
     8
 71
     3
 72
    12
 73
     8
 74
     0
 42
0.000000001
 43
0.00000001
 40
0.0
 40
0.0
 40
0.0
 40
0.0
 40
0.4999999999999998
 40
0.4999999999999998
 40
0.7499999999999999
 40
0.7499999999999999
 40
1.0
 40
1.0
 40
1.0
 40
1.0
 10
-3.532860107355123
 20
-116.6860818408072
 30
0.0
 10
17.63929988457624
 20
-117.482542693153
 30
0.0
 10
38.81137051384537
 20
-118.2789937047368
 30
0.0
 10
70.56868037645194
 20
-119.4736051821277
 30
0.0
 10
81.15432653646802
 20
-119.8717979918543
 30
0.0
 10
102.3247601000502
 20
-120.6681289395448
 30
0.0
 10
112.9098213171907
 20
-121.0662601704857
 30
0.0
 10
123.492596311529
 20
-121.464346019127
 30
0.0
  0
SPLINE
  5
1BB
330
194
100
AcDbEntity
  8
0
  6
Continuous
 62
     7
370
    25
100
AcDbSpline
210
0.0
220
0.0
230
1.0
 70
     8
 71
     3
 72
     8
 73
     4
 74
     0
 42
0.000000001
 43
0.00000001
 40
0.0
 40
0.0
 40
0.0
 40
0.0
 40
1.0
 40
1.0
 40
1.0
 40
1.0
 10
195.3319645154226
 20
-121.4171717100985
 30
0.0
 10
195.8158494930027
 20
-121.4318332477066
 30
0.0
 10
196.2085659405372
 20
-121.4478170917597
 30
0.0
 10
196.5074026494639
 20
-121.4643460582107
 30
0.0
  0
SPLINE
  5
1BC
330
194
100
AcDbEntity
  8
0
  6
Continuous
 62
     7
370
    25
100
AcDbSpline
210
0.0
220
0.0
230
1.0
 70
     8
 71
     3
 72
     8
 73
     4
 74
     0
 42
0.000000001
 43
0.00000001
 40
0.0000000000000004
 40
0.0000000000000004
 40
0.0000000000000004
 40
0.0000000000000004
 40
0.0000335162616695
 40
0.0000335162616695
 40
0.0000335162616695
 40
0.0000335162616695
 10
195.3431125193548
 20
-121.4174629721745
 30
0.0
 10
195.3394016590411
 20
-121.4173656970005
 30
0.0
 10
195.3356856577228
 20
-121.4172686095105
 30
0.0
 10
195.3319645154226
 20
-121.4171717100985
 30
0.0
  0
SPLINE
  5
1BD
330
194
100
AcDbEntity
  8
0
  6
Continuous
 62
     7
370
    25
100
AcDbSpline
210
0.0
220
0.0
230
1.0
 70
     8
 71
     3
 72
    12
 73
     8
 74
     0
 42
0.000000001
 43
0.00000001
 40
0.0
 40
0.0
 40
0.0
 40
0.0
 40
0.5
 40
0.5
 40
0.75
 40
0.75
 40
1.0
 40
1.0
 40
1.0
 40
1.0
 10
323.532860107355
 20
-116.6860818408072
 30
0.0
 10
302.360699942206
 20
-117.4825426996692
 30
0.0
 10
281.1886291397142
 20
-118.2789937177692
 30
0.0
 10
249.4313190173048
 20
-119.4736052049325
 30
0.0
 10
238.8456727706921
 20
-119.8717980179162
 30
0.0
 10
217.6752390339497
 20
-120.6681289721191
 30
0.0
 10
207.0901777301439
 20
-121.0662602063161
 30
0.0
 10
196.5074026494639
 20
-121.4643460582107
 30
0.0
  0
SPLINE
  5
1BF
330
194
100
AcDbEntity
  8
0
  6
Continuous
 62
     7
370
    25
100
AcDbSpline
210
0.0
220
0.0
230
1.0
 70
     8
 71
     3
 72
     8
 73
     4
 74
     0
 42
0.000000001
 43
0.00000001
 40
0.0
 40
0.0
 40
0.0
 40
0.0
 40
0.0066273204602602
 40
0.0066273204602602
 40
0.0066273204602602
 40
0.0066273204602602
 10
190.8640659141477
 20
-126.1085748281993
 30
0.0
 10
192.3527206582486
 20
-124.5447471200865
 30
0.0
 10
193.8421918862709
 20
-122.9809524163077
 30
0.0
 10
195.3319645154229
 20
-121.4171717100985
 30
0.0
  0
SPLINE
  5
1C0
330
194
100
AcDbEntity
  8
0
  6
Continuous
 62
     7
370
    25
100
AcDbSpline
210
0.0
220
0.0
230
1.0
 70
     8
 71
     3
 72
    58
 73
    54
 74
     0
 42
0.000000001
 43
0.00000001
 40
0.0
 40
0.0
 40
0.0
 40
0.0
 40
0.0624999999999974
 40
0.0624999999999974
 40
0.0937499999999961
 40
0.0937499999999961
 40
0.1249999999999948
 40
0.1249999999999948
 40
0.1874999999999922
 40
0.1874999999999922
 40
0.2499999999999896
 40
0.2499999999999896
 40
0.2656249999999896
 40
0.2656249999999896
 40
0.2812499999999897
 40
0.2812499999999897
 40
0.3124999999999898
 40
0.3124999999999898
 40
0.374999999999991
 40
0.374999999999991
 40
0.4062499999999916
 40
0.4062499999999916
 40
0.4374999999999922
 40
0.4374999999999922
 40
0.4999999999999932
 40
0.4999999999999932
 40
0.5156249999999934
 40
0.5156249999999934
 40
0.5312499999999937
 40
0.5312499999999937
 40
0.5624999999999942
 40
0.5624999999999942
 40
0.6249999999999964
 40
0.6249999999999964
 40
0.656249999999997
 40
0.656249999999997
 40
0.6874999999999976
 40
0.6874999999999976
 40
0.7499999999999979
 40
0.7499999999999979
 40
0.7812499999999977
 40
0.7812499999999977
 40
0.7968749999999978
 40
0.7968749999999978
 40
0.8124999999999979
 40
0.8124999999999979
 40
0.8749999999999982
 40
0.8749999999999982
 40
0.9062499999999986
 40
0.9062499999999986
 40
0.9374999999999988
 40
0.9374999999999988
 40
1.0
 40
1.0
 40
1.0
 40
1.0
 10
190.8640659141492
 20
-126.1085748281994
 30
0.0
 10
190.3274228256165
 20
-126.0643427299744
 30
0.0
 10
189.6695715759706
 20
-126.0134682416474
 30
0.0
 10
188.507628971349
 20
-125.9207586029858
 30
0.0
 10
188.0909804636349
 20
-125.8871616156312
 30
0.0
 10
187.1984983743948
 20
-125.8133093300088
 30
0.0
 10
186.7217291239149
 20
-125.7730274413763
 30
0.0
 10
185.2062140581305
 20
-125.6407701944266
 30
0.0
 10
184.1012170900487
 20
-125.5390961265079
 30
0.0
 10
181.7099488400455
 20
-125.3071312496236
 30
0.0
 10
180.4236875899668
 20
-125.1767565735045
 30
0.0
 10
178.698553550813
 20
-125.0029738619046
 30
0.0
 10
178.3471993703527
 20
-124.967686132866
 30
0.0
 10
177.6386770544649
 20
-124.8970277167421
 30
0.0
 10
177.2808203763481
 20
-124.861624471283
 30
0.0
 10
176.1965903605978
 20
-124.7557066938492
 30
0.0
 10
175.4595739484693
 20
-124.6854880699151
 30
0.0
 10
173.2062623534373
 20
-124.4807485163394
 30
0.0
 10
171.6479592268165
 20
-124.3523951812297
 30
0.0
 10
169.2228642090497
 20
-124.1895770391492
 30
0.0
 10
168.3966383998827
 20
-124.1400602191764
 30
0.0
 10
166.7418471553224
 20
-124.0545166002072
 30
0.0
 10
165.9108336044925
 20
-124.0181975774326
 30
0.0
 10
163.4071080316135
 20
-123.930598261703
 30
0.0
 10
161.7237883252284
 20
-123.899975239085
 30
0.0
 10
159.6016188828802
 20
-123.8995790824268
 30
0.0
 10
159.176279106097
 20
-123.9013928621099
 30
0.0
 10
158.3237615819281
 20
-123.9088045348765
 30
0.0
 10
157.8955945710014
 20
-123.9144222492242
 30
0.0
 10
156.6168148776392
 20
-123.9368882399987
 30
0.0
 10
155.7724451010345
 20
-123.9592704302071
 30
0.0
 10
153.2630370388295
 20
-124.0470890291467
 30
0.0
 10
151.6215669954893
 20
-124.1332781057211
 30
0.0
 10
149.2060278883511
 20
-124.294868159683
 30
0.0
 10
148.4086582354767
 20
-124.3540796798003
 30
0.0
 10
146.8298450847126
 20
-124.4808222434679
 30
0.0
 10
146.0565094225255
 20
-124.5477585922741
 30
0.0
 10
143.7931204878159
 20
-124.753301085082
 30
0.0
 10
142.3548144663257
 20
-124.8968660564097
 30
0.0
 10
140.301318498501
 20
-125.1037018693697
 30
0.0
 10
139.6342325106081
 20
-125.1712609316313
 30
0.0
 10
138.6602903336678
 20
-125.2688609506323
 30
0.0
 10
138.3394332671095
 20
-125.300844431692
 30
0.0
 10
137.7114459465541
 20
-125.3629344293111
 30
0.0
 10
137.4040360975445
 20
-125.3930727214373
 30
0.0
 10
135.8994019592997
 20
-125.5390731758528
 30
0.0
 10
134.7988137665086
 20
-125.6403639840507
 30
0.0
 10
133.300500626094
 20
-125.7710853067489
 30
0.0
 10
132.8266096323529
 20
-125.8112064218781
 30
0.0
 10
131.9309950731348
 20
-125.8853593576067
 30
0.0
 10
131.507980598698
 20
-125.9195274032016
 30
0.0
 10
130.3330699404213
 20
-126.0132532009809
 30
0.0
 10
129.6725902361445
 20
-126.0643415867098
 30
0.0
 10
129.13593297682
 20
-126.1085749105922
 30
0.0
  0
SPLINE
  5
1C1
330
194
100
AcDbEntity
  8
0
  6
Continuous
 62
     7
370
    25
100
AcDbSpline
210
0.0
220
0.0
230
1.0
 70
     8
 71
     3
 72
     8
 73
     4
 74
     0
 42
0.000000001
 43
0.00000001
 40
0.0
 40
0.0
 40
0.0
 40
0.0
 40
0.0066273205339822
 40
0.0066273205339822
 40
0.0066273205339822
 40
0.0066273205339822
 10
129.1359329768215
 20
-126.1085749105921
 30
0.0
 10
127.6472782771278
 20
-124.5447471840391
 30
0.0
 10
126.157807100471
 20
-122.9809524610858
 30
0.0
 10
124.6680345219241
 20
-121.4171717353938
 30
0.0
  0
SPLINE
  5
1C2
330
194
100
AcDbEntity
  8
0
  6
Continuous
 62
     7
370
    25
100
AcDbSpline
210
0.0
220
0.0
230
1.0
 70
     8
 71
     3
 72
     8
 73
     4
 74
     0
 42
0.000000001
 43
0.00000001
 40
0.0
 40
0.0
 40
0.0
 40
0.0
 40
1.0
 40
1.0
 40
1.0
 40
1.0
 10
191.8975008716381
 20
-126.1530207087225
 30
0.0
 10
191.6362981733778
 20
-126.1374694131312
 30
0.0
 10
191.2910140901596
 20
-126.1224409516656
 30
0.0
 10
190.8640659141495
 20
-126.1085748281993
 30
0.0
  0
SPLINE
  5
1C3
330
194
100
AcDbEntity
  8
0
  6
Continuous
 62
     7
370
    25
100
AcDbSpline
210
0.0
220
0.0
230
1.0
 70
     8
 71
     3
 72
     9
 73
     5
 74
     0
 42
0.000000001
 43
0.00000001
 40
0.0
 40
0.0
 40
0.0
 40
0.0
 40
0.352285910826007
 40
1.0
 40
1.0
 40
1.0
 40
1.0
 10
192.4392275468829
 20
-126.1432405048797
 30
0.0
 10
192.4505079379441
 20
-126.1430386154366
 30
0.0
 10
192.4825284948682
 20
-126.142465531368
 30
0.0
 10
192.1274744068599
 20
-126.1488714833616
 30
0.0
 10
191.8975008716381
 20
-126.1530207087225
 30
0.0
  0
SPLINE
  5
1C4
330
194
100
AcDbEntity
  8
0
  6
Continuous
 62
     7
370
    25
100
AcDbSpline
210
0.0
220
0.0
230
1.0
 70
     8
 71
     3
 72
     9
 73
     5
 74
     0
 42
0.000000001
 43
0.00000001
 40
0.0
 40
0.0
 40
0.0
 40
0.0
 40
0.7145265663368332
 40
1.0
 40
1.0
 40
1.0
 40
1.0
 10
128.1028820778193
 20
-126.1529987165122
 30
0.0
 10
127.848984799957
 20
-126.1484254626356
 30
0.0
 10
127.4936484278415
 20
-126.1420250653766
 30
0.0
 10
127.5458657849007
 20
-126.1429705843358
 30
0.0
 10
127.5607724531172
 20
-126.1432405048796
 30
0.0
  0
SPLINE
  5
1C5
330
194
100
AcDbEntity
  8
0
  6
Continuous
 62
     7
370
    25
100
AcDbSpline
210
0.0
220
0.0
230
1.0
 70
     8
 71
     3
 72
     8
 73
     4
 74
     0
 42
0.000000001
 43
0.00000001
 40
0.0
 40
0.0
 40
0.0
 40
0.0
 40
1.0
 40
1.0
 40
1.0
 40
1.0
 10
129.1359329768204
 20
-126.1085749105921
 30
0.0
 10
128.7091940137158
 20
-126.1224342760065
 30
0.0
 10
128.3640390592155
 20
-126.1374603457159
 30
0.0
 10
128.1028820778193
 20
-126.1529987165123
 30
0.0
  0
SPLINE
  5
1C8
330
194
100
AcDbEntity
  8
0
  6
Continuous
 62
     7
370
    25
100
AcDbSpline
210
0.0
220
0.0
230
1.0
 70
     8
 71
     3
 72
     9
 73
     5
 74
     0
 42
0.000000001
 43
0.00000001
 40
0.0
 40
0.0
 40
0.0
 40
0.0
 40
0.3070584227398662
 40
1.0
 40
1.0
 40
1.0
 40
1.0
 10
122.8893502929235
 20
-121.4541439416125
 30
0.0
 10
122.869880573472
 20
-121.4538138791632
 30
0.0
 10
122.8064733583964
 20
-121.4527389617375
 30
0.0
 10
123.2125878429631
 20
-121.4596106202944
 30
0.0
 10
123.4940014544469
 20
-121.4643722782132
 30
0.0
  0
SPLINE
  5
1CA
330
194
100
AcDbEntity
  8
0
  6
Continuous
 62
     7
370
    25
100
AcDbSpline
210
0.0
220
0.0
230
1.0
 70
     8
 71
     3
 72
     9
 73
     5
 74
     0
 42
0.000000001
 43
0.00000001
 40
0.0
 40
0.0
 40
0.0
 40
0.0
 40
0.6256936538301944
 40
1.0
 40
1.0
 40
1.0
 40
1.0
 10
196.5062379612435
 20
-121.4643678225196
 30
0.0
 10
196.7601978503749
 20
-121.4600732916331
 30
0.0
 10
197.1660832026983
 20
-121.4532096597898
 30
0.0
 10
197.1257576887597
 20
-121.4538893082654
 30
0.0
 10
197.1106635929799
 20
-121.4541437050029
 30
0.0
  0
SPLINE
  5
1CB
330
194
100
AcDbEntity
  8
0
  6
Continuous
 62
     7
370
    25
100
AcDbSpline
210
0.0
220
0.0
230
1.0
 70
     8
 71
     3
 72
     8
 73
     4
 74
     0
 42
0.000000001
 43
0.00000001
 40
0.0
 40
0.0
 40
0.0
 40
0.0
 40
0.0066333156089189
 40
0.0066333156089189
 40
0.0066333156089189
 40
0.0066333156089189
 10
191.8975008716381
 20
-126.1530207087225
 30
0.0
 10
193.4336856572343
 20
-124.5901395745822
 30
0.0
 10
194.9699464344388
 20
-123.0272549823765
 30
0.0
 10
196.5062379612442
 20
-121.4643678225196
 30
0.0
  0
LINE
  5
1CD
330
194
100
AcDbEntity
  8
0
  6
Continuous
 62
     7
370
    25
100
AcDbLine
 10
127.5
 20
-126.1432405049
 30
0.0
 11
127.5
 21
-137.0
 31
0.0
  0
LINE
  5
1CE
330
194
100
AcDbEntity
  8
0
  6
Continuous
 62
     7
370
    25
100
AcDbLine
 10
192.5
 20
-137.0
 30
0.0
 11
192.5
 21
-126.1432405049
 31
0.0
  0
LINE
  5
1CF
330
194
100
AcDbEntity
  8
0
  6
Continuous
 62
     7
370
    25
100
AcDbLine
 10
59.7888402455
 20
-119.0746208422
 30
0.0
 11
122.8106673791
 21
-121.4528029998
 31
0.0
  0
LINE
  5
1D0
330
194
100
AcDbEntity
  8
0
  6
Continuous
 62
     7
370
    25
100
AcDbLine
 10
197.1893326209
 20
-121.4528029998
 30
0.0
 11
260.2111597587
 21
-119.0746208422
 31
0.0
  0
LINE
  5
1D1
330
194
100
AcDbEntity
  8
0
  6
Continuous
 62
     7
370
    25
100
AcDbLine
 10
122.8106673791
 20
-121.4528029998
 30
0.0
 11
127.5281585992
 21
-126.1702942202
 31
0.0
  0
LINE
  5
1D2
330
194
100
AcDbEntity
  8
0
  6
Continuous
 62
     7
370
    25
100
AcDbLine
 10
192.4718414008
 20
-126.1702942202
 30
0.0
 11
197.1893326209
 21
-121.4528029998
 31
0.0
  0
LINE
  5
1D3
330
194
100
AcDbEntity
  8
0
  6
Continuous
 62
     7
370
    25
100
AcDbLine
 10
330.0154202096
 20
0.0
 30
0.0
 11
-10.0154202096
 21
0.0
 31
0.0
  0
LINE
  5
1D4
330
194
100
AcDbEntity
  8
0
  6
Continuous
 62
     7
370
    25
100
AcDbLine
 10
330.0154202096
 20
0.0
 30
0.0
 11
323.5328601074
 21
-116.6860818408
 31
0.0
  0
LINE
  5
1D5
330
194
100
AcDbEntity
  8
0
  6
Continuous
 62
     7
370
    25
100
AcDbLine
 10
329.5416208941
 20
-8.5283876792
 30
0.0
 11
-9.5416208941
 21
-8.5283876792
 31
0.0
  0
LINE
  5
1D6
330
194
100
AcDbEntity
  8
0
  6
Continuous
 62
     7
370
    25
100
AcDbLine
 10
-4.5416208941
 20
-98.5283876792
 30
0.0
 11
324.5416208941
 21
-98.5283876792
 31
0.0
  0
LINE
  5
1D7
330
194
100
AcDbEntity
  8
0
  6
Continuous
 62
     7
370
    25
100
AcDbLine
 10
15.8578643763
 20
-112.0
 30
0.0
 11
15.8578643763
 21
-115.6774408851
 31
0.0
  0
LINE
  5
1D8
330
194
100
AcDbEntity
  8
0
  6
Continuous
 62
     7
370
    25
100
AcDbLine
 10
-10.0154202096
 20
0.0
 30
0.0
 11
-3.5328601074
 21
-116.6860818408
 31
0.0
  0
LINE
  5
1D9
330
194
100
AcDbEntity
  8
0
  6
Continuous
 62
     7
370
    25
100
AcDbLine
 10
323.7931979874
 20
-112.0
 30
0.0
 11
304.1421356237
 21
-112.0
 31
0.0
  0
LINE
  5
1DA
330
194
100
AcDbEntity
  8
0
  6
Continuous
 62
     7
370
    25
100
AcDbLine
 10
304.1421356237
 20
-112.0
 30
0.0
 11
304.1421356237
 21
-115.6774408851
 31
0.0
  0
LINE
  5
1DB
330
194
100
AcDbEntity
  8
0
  6
Continuous
 62
     7
370
    25
100
AcDbLine
 10
15.8578643763
 20
-112.0
 30
0.0
 11
-3.7931979874
 21
-112.0
 31
0.0
  0
LINE
  5
1DC
330
194
100
AcDbEntity
  8
0
  6
Continuous
 62
     7
370
    25
100
AcDbLine
 10
192.5
 20
-137.0
 30
0.0
 11
127.5
 21
-137.0
 31
0.0
  0
LINE
  5
1DD
330
194
100
AcDbEntity
  8
0
  6
Continuous
 62
     7
370
    25
100
AcDbLine
 10
123.4940014544
 20
-121.4643722782
 30
0.0
 11
123.4925963115
 21
-121.4643460191
 31
0.0
  0
LINE
  5
1DE
330
194
100
AcDbEntity
  8
0
  6
Continuous
 62
     7
370
    25
100
AcDbLine
 10
196.5074026495
 20
-121.4643460582
 30
0.0
 11
196.5062379612
 21
-121.4643678225
 31
0.0
  0
LINE
  5
1DF
330
194
100
AcDbEntity
  8
0
  6
Continuous
 62
     7
370
    25
100
AcDbLine
 10
128.1028820778
 20
-126.1529987165
 30
0.0
 11
123.4940014544
 21
-121.4643722782
 31
0.0
  0
VIEWPORT
  5
43C
330
194
100
AcDbEntity
  8
0
100
AcDbViewport
 10
0.0
 20
0.0
 30
0.0
 40
205.6
 41
156.0
 68
     1
 69
     1
 12
344.7136829649
 22
-71.7588603704
 13
0.0
 23
0.0
 14
10.0
 24
10.0
 15
10.0
 25
10.0
 16
0.0
 26
0.0
 36
1.0
 17
0.0
 27
0.0
 37
0.0
 42
50.0
 43
0.0
 44
0.0
 45
555.4781190292
 50
0.0
 51
0.0
 72
   100
 90
   557152
  1

281
     0
 71
     1
 74
     0
110
0.0
120
0.0
130
0.0
111
1.0
121
0.0
131
0.0
112
0.0
122
1.0
132
0.0
 79
     0
146
0.0
170
     0
 61
     5
348
2F
292
     1
282
     1
141
0.0
142
0.0
 63
   256
361
43D
  0
ENDBLK
  5
197
330
194
100
AcDbEntity
  8
0
100
AcDbBlockEnd
  0
BLOCK
  5
1E2
330
1E0
100
AcDbEntity
  8
0
100
AcDbBlockBegin
  2
*Paper_Space2
 70
     0
 10
0.0
 20
0.0
 30
0.0
  3
*Paper_Space2
  1

  0
SPLINE
  5
1E6
330
1E0
100
AcDbEntity
  8
0
  6
Continuous
 62
     7
370
    25
100
AcDbSpline
210
0.0
220
0.0
230
1.0
 70
     8
 71
     3
 72
    11
 73
     7
 74
     0
 42
0.000000001
 43
0.00000001
 40
0.0
 40
0.0
 40
0.0
 40
0.0
 40
0.2478968662457695
 40
0.4990428894398007
 40
0.7536924078478422
 40
1.0
 40
1.0
 40
1.0
 40
1.0
 10
93.38749334237484
 20
-116.9356064320199
 30
0.0
 10
93.41066930134717
 20
-116.9281901933997
 30
0.0
 10
93.45732498403592
 20
-116.9132605123359
 30
0.0
 10
93.24850080579262
 20
-116.9349704379388
 30
0.0
 10
93.17524902124086
 20
-116.9336356372963
 30
0.0
 10
93.26150727887695
 20
-116.9210220054771
 30
0.0
 10
93.30391822243628
 20
-116.9148202105207
 30
0.0
  0
LWPOLYLINE
  5
1F0
330
1E0
100
AcDbEntity
  8
0
  6
Continuous
 62
     7
370
    25
100
AcDbPolyline
 90
        5
 70
   128
 43
0.0
 10
78.7429482285
 20
-116.6860818408
 10
62.8714741571
 20
-116.6853637224
 10
47.0000000711
 20
-116.6851207026
 10
31.1285259213
 20
-116.6853637224
 10
15.2570517715
 20
-116.6860818408
  0
LWPOLYLINE
  5
1F7
330
1E0
100
AcDbEntity
  8
0
  6
Continuous
 62
     7
370
    25
100
AcDbPolyline
 90
        4
 70
   128
 43
0.0
 10
11.3975569427
 20
-116.5630975769
 10
3.8712664163
 20
-116.5605971964
 10
-1.7705214323
 20
-116.5588619642
 10
-2.0330693358
 20
-116.5587839274
  0
SPLINE
  5
1F8
330
1E0
100
AcDbEntity
  8
0
  6
Continuous
 62
     7
370
    25
100
AcDbSpline
210
0.0
220
0.0
230
1.0
 70
     8
 71
     3
 72
     8
 73
     4
 74
     0
 42
0.000000001
 43
0.00000001
 40
0.0
 40
0.0
 40
0.0
 40
0.0
 40
1.0
 40
1.0
 40
1.0
 40
1.0
 10
-2.033069335832749
 20
-116.558783927436
 30
0.0
 10
-3.833672034981139
 20
-116.3144516004691
 30
0.0
 10
-5.632637021964704
 20
-116.0513070215187
 30
0.0
 10
-7.429846638572157
 20
-115.7679986613254
 30
0.0
  0
SPLINE
  5
1FA
330
1E0
100
AcDbEntity
  8
0
  6
Continuous
 62
     7
370
    25
100
AcDbSpline
210
0.0
220
0.0
230
1.0
 70
     8
 71
     3
 72
     8
 73
     4
 74
     0
 42
0.000000001
 43
0.00000001
 40
0.0
 40
0.0
 40
0.0
 40
0.0
 40
1.0
 40
1.0
 40
1.0
 40
1.0
 10
96.03306933585554
 20
-116.5587839274329
 30
0.0
 10
98.02379285216506
 20
-116.28865320436
 30
0.0
 10
100.0128115292202
 20
-115.9954380359893
 30
0.0
 10
102.0000000000001
 20
-115.6774408850758
 30
0.0
  0
LWPOLYLINE
  5
1FB
330
1E0
100
AcDbEntity
  8
0
  6
Continuous
 62
     7
370
    25
100
AcDbPolyline
 90
        4
 70
   128
 43
0.0
 10
96.0330693359
 20
-116.5587839274
 10
92.0447771918
 20
-116.5599940477
 10
84.5189050108
 20
-116.5624416279
 10
82.6024430573
 20
-116.5630975769
  0
SPLINE
  5
1FD
330
1E0
100
AcDbEntity
  8
0
  6
Continuous
 62
     7
370
    25
100
AcDbSpline
210
0.0
220
0.0
230
1.0
 70
     8
 71
     3
 72
    12
 73
     8
 74
     0
 42
0.000000001
 43
0.00000001
 40
0.0
 40
0.0
 40
0.0
 40
0.0
 40
0.5
 40
0.5
 40
0.75
 40
0.75
 40
1.0
 40
1.0
 40
1.0
 40
1.0
 10
96.03306933582878
 20
-116.5587839274365
 30
0.0
 10
89.82994385187298
 20
-117.3677711931656
 30
0.0
 10
83.61717707938399
 20
-118.1770124469344
 30
0.0
 10
74.26207669590262
 20
-119.3916143427847
 30
0.0
 10
71.1376533584498
 20
-119.7966114837333
 30
0.0
 10
64.86612924329249
 20
-120.6069060432078
 30
0.0
 10
61.72096595366067
 20
-121.0122847101869
 30
0.0
 10
58.54614351736704
 20
-121.4174629723297
 30
0.0
  0
SPLINE
  5
1FE
330
1E0
100
AcDbEntity
  8
0
  6
Continuous
 62
     7
370
    25
100
AcDbSpline
210
0.0
220
0.0
230
1.0
 70
     8
 71
     3
 72
     8
 73
     4
 74
     0
 42
0.000000001
 43
0.00000001
 40
0.0000000000000005
 40
0.0000000000000005
 40
0.0000000000000005
 40
0.0000000000000005
 40
0.0000335133614906
 40
0.0000335133614906
 40
0.0000335133614906
 40
0.0000335133614906
 10
58.57774737997312
 20
-121.4171717353937
 30
0.0
 10
58.56721457184627
 20
-121.4172686264471
 30
0.0
 10
58.55667994815195
 20
-121.4173657055579
 30
0.0
 10
58.54614351736592
 20
-121.4174629723297
 30
0.0
  0
SPLINE
  5
1FF
330
1E0
100
AcDbEntity
  8
0
  6
Continuous
 62
     7
370
    25
100
AcDbSpline
210
0.0
220
0.0
230
1.0
 70
     8
 71
     3
 72
     8
 73
     4
 74
     0
 42
0.000000001
 43
0.00000001
 40
0.0
 40
0.0
 40
0.0
 40
0.0
 40
1.0
 40
1.0
 40
1.0
 40
1.0
 10
54.10489417139574
 20
-121.464346019127
 30
0.0
 10
55.61845961558959
 20
-121.4478168580313
 30
0.0
 10
57.11279196502051
 20
-121.4318332684611
 30
0.0
 10
58.57774737997273
 20
-121.4171717353937
 30
0.0
  0
SPLINE
  5
200
330
1E0
100
AcDbEntity
  8
0
  6
Continuous
 62
     7
370
    25
100
AcDbSpline
210
0.0
220
0.0
230
1.0
 70
     8
 71
     3
 72
    12
 73
     8
 74
     0
 42
0.000000001
 43
0.00000001
 40
0.0
 40
0.0
 40
0.0
 40
0.0
 40
0.4999999999999998
 40
0.4999999999999998
 40
0.7499999999999999
 40
0.7499999999999999
 40
1.0
 40
1.0
 40
1.0
 40
1.0
 10
78.74294822847757
 20
-116.6860818408072
 30
0.0
 10
74.64306694471135
 20
-117.482542693153
 30
0.0
 10
70.54272173535159
 20
-118.2789937047368
 30
0.0
 10
64.38808358682286
 20
-119.4736051821277
 30
0.0
 10
62.33589563640746
 20
-119.8717979918543
 30
0.0
 10
58.22708422266948
 20
-120.6681289395448
 30
0.0
 10
56.1718635965503
 20
-121.0662601704857
 30
0.0
 10
54.10489417139564
 20
-121.464346019127
 30
0.0
  0
SPLINE
  5
201
330
1E0
100
AcDbEntity
  8
0
  6
Continuous
 62
     7
370
    25
100
AcDbSpline
210
0.0
220
0.0
230
1.0
 70
     8
 71
     3
 72
    12
 73
     8
 74
     0
 42
0.000000001
 43
0.00000001
 40
0.0
 40
0.0
 40
0.0
 40
0.0
 40
0.5
 40
0.5
 40
0.75
 40
0.75
 40
1.0
 40
1.0
 40
1.0
 40
1.0
 10
15.25705177152248
 20
-116.6860818408072
 30
0.0
 10
19.35693310275788
 20
-117.4825427023746
 30
0.0
 10
23.45727835958689
 20
-118.2789937231801
 30
0.0
 10
29.61191657948709
 20
-119.4736052144008
 30
0.0
 10
31.66410459336855
 20
-119.8717980364161
 30
0.0
 10
35.77291590348436
 20
-120.6681289639653
 30
0.0
 10
37.82813618394776
 20
-121.0662601283983
 30
0.0
 10
39.89510603153845
 20
-121.4643460582107
 30
0.0
  0
SPLINE
  5
202
330
1E0
100
AcDbEntity
  8
0
  6
Continuous
 62
     7
370
    25
100
AcDbSpline
210
0.0
220
0.0
230
1.0
 70
     8
 71
     3
 72
     8
 73
     4
 74
     0
 42
0.000000001
 43
0.00000001
 40
0.0
 40
0.0
 40
0.0
 40
0.0
 40
1.0
 40
1.0
 40
1.0
 40
1.0
 10
35.42224988446696
 20
-121.4171717100985
 30
0.0
 10
36.88720654456306
 20
-121.4318332477067
 30
0.0
 10
38.38154116397396
 20
-121.4478170917594
 30
0.0
 10
39.8951060315374
 20
-121.4643460582107
 30
0.0
  0
SPLINE
  5
203
330
1E0
100
AcDbEntity
  8
0
  6
Continuous
 62
     7
370
    25
100
AcDbSpline
210
0.0
220
0.0
230
1.0
 70
     8
 71
     3
 72
     8
 73
     4
 74
     0
 42
0.000000001
 43
0.00000001
 40
0.0000000000000006
 40
0.0000000000000006
 40
0.0000000000000006
 40
0.0000000000000006
 40
0.0000335162616681
 40
0.0000335162616681
 40
0.0000335162616681
 40
0.0000335162616681
 10
35.45385648141996
 20
-121.4174629721745
 30
0.0
 10
35.44331913895643
 20
-121.4173656970006
 30
0.0
 10
35.43278360381863
 20
-121.4172686095104
 30
0.0
 10
35.42224988446569
 20
-121.4171717100984
 30
0.0
  0
SPLINE
  5
204
330
1E0
100
AcDbEntity
  8
0
  6
Continuous
 62
     7
370
    25
100
AcDbSpline
210
0.0
220
0.0
230
1.0
 70
     8
 71
     3
 72
    12
 73
     8
 74
     0
 42
0.000000001
 43
0.00000001
 40
0.0
 40
0.0
 40
0.0
 40
0.0
 40
0.5
 40
0.5
 40
0.75
 40
0.75
 40
1.0
 40
1.0
 40
1.0
 40
1.0
 10
-2.033069335832749
 20
-116.5587839274359
 30
0.0
 10
4.170058258383347
 20
-117.3677714683768
 30
0.0
 10
10.3828271748822
 20
-118.1770130012928
 30
0.0
 10
19.73793115886674
 20
-119.3916153615869
 30
0.0
 10
22.86235484589339
 20
-119.7966125447676
 30
0.0
 10
29.13386945120994
 20
-120.6069058735194
 30
0.0
 10
32.27902159884233
 20
-121.0122831216072
 30
0.0
 10
35.45385648141996
 20
-121.4174629721745
 30
0.0
  0
SPLINE
  5
206
330
1E0
100
AcDbEntity
  8
0
  6
Continuous
 62
     7
370
    25
100
AcDbSpline
210
0.0
220
0.0
230
1.0
 70
     8
 71
     3
 72
    14
 73
    10
 74
     0
 42
0.000000001
 43
0.00000001
 40
0.0
 40
0.0
 40
0.0
 40
0.0
 40
0.25
 40
0.25
 40
0.5
 40
0.5
 40
0.75
 40
0.75
 40
1.0
 40
1.0
 40
1.0
 40
1.0
 10
39.88963139766294
 20
-121.4643678225196
 30
0.0
 10
41.06186453784238
 20
-121.4605221301878
 30
0.0
 10
42.24160426397966
 20
-121.4576650415704
 30
0.0
 10
44.61605677108737
 20
-121.4537759167503
 30
0.0
 10
45.80948177114941
 20
-121.4528023365919
 30
0.0
 10
48.19259079904293
 20
-121.4528036637507
 30
0.0
 10
49.38695154294176
 20
-121.453781151211
 30
0.0
 10
51.75991625004706
 20
-121.4576678675725
 30
0.0
 10
52.9392800934067
 20
-121.4605243470862
 30
0.0
 10
54.11149866326864
 20
-121.4643722782132
 30
0.0
  0
SPLINE
  5
208
330
1E0
100
AcDbEntity
  8
0
  6
Continuous
 62
     7
370
    25
100
AcDbSpline
210
0.0
220
0.0
230
1.0
 70
     8
 71
     3
 72
    15
 73
    11
 74
     0
 42
0.000000001
 43
0.00000001
 40
0.0
 40
0.0
 40
0.0
 40
0.0
 40
0.0663550910807772
 40
0.2018746470572371
 40
0.3412610959759718
 40
0.477999260607946
 40
0.6189182353881554
 40
0.7514880388538103
 40
0.8881653210697135
 40
1.0
 40
1.0
 40
1.0
 40
1.0
 10
10.63181882719222
 20
-119.1587218979868
 30
0.0
 10
10.60260447163652
 20
-119.1529590148241
 30
0.0
 10
10.51372451350901
 20
-119.135426373612
 30
0.0
 10
11.50934903809819
 20
-119.3318428660209
 30
0.0
 10
13.5054816497493
 20
-119.6996493621267
 30
0.0
 10
16.56716110574497
 20
-120.1852140203986
 30
0.0
 10
20.49196840036305
 20
-120.6527277860763
 30
0.0
 10
25.24560347151594
 20
-121.0221939828058
 30
0.0
 10
30.25589289457731
 20
-121.2659681510762
 30
0.0
 10
33.84065262664659
 20
-121.3704460923348
 30
0.0
 10
35.45385648141941
 20
-121.4174629721745
 30
0.0
  0
SPLINE
  5
20A
330
1E0
100
AcDbEntity
  8
0
  6
Continuous
 62
     7
370
    25
100
AcDbSpline
210
0.0
220
0.0
230
1.0
 70
     8
 71
     3
 72
    15
 73
    11
 74
     0
 42
0.000000001
 43
0.00000001
 40
0.0
 40
0.0
 40
0.0
 40
0.0
 40
0.1302231472599995
 40
0.2642237281622872
 40
0.3941700886240297
 40
0.5241071134859482
 40
0.6576997088719467
 40
0.7902845660396429
 40
0.926452727484657
 40
1.0
 40
1.0
 40
1.0
 40
1.0
 10
58.54614351736503
 20
-121.4174629723297
 30
0.0
 10
60.42133875294875
 20
-121.3620270511757
 30
0.0
 10
64.22612374396769
 20
-121.249547157473
 30
0.0
 10
69.33391283164542
 20
-120.9847447945343
 30
0.0
 10
73.8216062878237
 20
-120.6183080806226
 30
0.0
 10
77.53652269261202
 20
-120.1683868928373
 30
0.0
 10
80.4396860758152
 20
-119.7083730002551
 30
0.0
 10
82.42776972846616
 20
-119.343939442012
 30
0.0
 10
83.45729539542873
 20
-119.1411773672895
 30
0.0
 10
83.39670809763817
 20
-119.1531042903881
 30
0.0
 10
83.37546011213028
 20
-119.1572870662899
 30
0.0
  0
SPLINE
  5
20C
330
1E0
100
AcDbEntity
  8
0
  6
Continuous
 62
     7
370
    25
100
AcDbSpline
210
0.0
220
0.0
230
1.0
 70
     8
 71
     3
 72
    14
 73
    10
 74
     0
 42
0.000000001
 43
0.00000001
 40
0.0
 40
0.0
 40
0.0
 40
0.0
 40
0.25
 40
0.25
 40
0.5
 40
0.5
 40
0.75
 40
0.75
 40
1.0
 40
1.0
 40
1.0
 40
1.0
 10
53.23088021538796
 20
-126.1529987165122
 30
0.0
 10
52.20405540448675
 20
-126.1493196780617
 30
0.0
 10
51.17097995379483
 20
-126.1467056723417
 30
0.0
 10
49.09240357647943
 20
-126.1430548375458
 30
0.0
 10
48.04579369602913
 20
-126.1421343146288
 30
0.0
 10
45.95722918689676
 20
-126.1421369343317
 30
0.0
 10
44.91121790578062
 20
-126.1430411060024
 30
0.0
 10
42.83132347703522
 20
-126.1467020037609
 30
0.0
 10
41.79791751962575
 20
-126.1493117886749
 30
0.0
 10
40.77108049949063
 20
-126.1530207087225
 30
0.0
  0
SPLINE
  5
20E
330
1E0
100
AcDbEntity
  8
0
  6
Continuous
 62
     7
370
    25
100
AcDbSpline
210
0.0
220
0.0
230
1.0
 70
     8
 71
     3
 72
     8
 73
     4
 74
     0
 42
0.000000001
 43
0.00000001
 40
0.0
 40
0.0
 40
0.0
 40
0.0
 40
0.0066273205339822
 40
0.0066273205339822
 40
0.0066273205339822
 40
0.0066273205339822
 10
57.18132441231227
 20
-126.1085749105921
 30
0.0
 10
57.64876754026588
 20
-124.5447471840391
 30
0.0
 10
58.1137209181285
 20
-122.9809524610858
 30
0.0
 10
58.5777473799714
 20
-121.4171717353938
 30
0.0
  0
SPLINE
  5
20F
330
1E0
100
AcDbEntity
  8
0
  6
Continuous
 62
     7
370
    25
100
AcDbSpline
210
0.0
220
0.0
230
1.0
 70
     8
 71
     3
 72
     8
 73
     4
 74
     0
 42
0.000000001
 43
0.00000001
 40
0.0
 40
0.0
 40
0.0
 40
0.0
 40
1.0
 40
1.0
 40
1.0
 40
1.0
 10
57.18132441230866
 20
-126.1085749105921
 30
0.0
 10
55.88769114562497
 20
-126.1224342760065
 30
0.0
 10
54.56779486369317
 20
-126.1374603457159
 30
0.0
 10
53.23088021538675
 20
-126.1529987165123
 30
0.0
  0
SPLINE
  5
210
330
1E0
100
AcDbEntity
  8
0
  6
Continuous
 62
     7
370
    25
100
AcDbSpline
210
0.0
220
0.0
230
1.0
 70
     8
 71
     3
 72
     8
 73
     4
 74
     0
 42
0.000000001
 43
0.00000001
 40
0.0
 40
0.0
 40
0.0
 40
0.0
 40
1.0
 40
1.0
 40
1.0
 40
1.0
 10
40.77108049949063
 20
-126.1530207087226
 30
0.0
 10
39.43349485647468
 20
-126.1374694131314
 30
0.0
 10
38.11293923477626
 20
-126.1224409516653
 30
0.0
 10
36.81867222575836
 20
-126.1085748282
 30
0.0
  0
SPLINE
  5
211
330
1E0
100
AcDbEntity
  8
0
  6
Continuous
 62
     7
370
    25
100
AcDbSpline
210
0.0
220
0.0
230
1.0
 70
     8
 71
     3
 72
     8
 73
     4
 74
     0
 42
0.000000001
 43
0.00000001
 40
0.0
 40
0.0
 40
0.0
 40
0.0
 40
0.0066273204602603
 40
0.0066273204602603
 40
0.0066273204602603
 40
0.0066273204602603
 10
35.42224988446907
 20
-121.4171717100986
 30
0.0
 10
35.88627613251472
 20
-122.9809524163079
 30
0.0
 10
36.35122929365997
 20
-124.5447471200869
 30
0.0
 10
36.81867222575647
 20
-126.1085748282
 30
0.0
  0
SPLINE
  5
212
330
1E0
100
AcDbEntity
  8
0
  6
Continuous
 62
     7
370
    25
100
AcDbSpline
210
0.0
220
0.0
230
1.0
 70
     8
 71
     3
 72
    15
 73
    11
 74
     0
 42
0.000000001
 43
0.00000001
 40
0.0
 40
0.0
 40
0.0
 40
0.0
 40
0.1211220711851736
 40
0.2451620997269578
 40
0.3774670560904346
 40
0.513600257468609
 40
0.6461797856521629
 40
0.782569984023394
 40
0.915426710943777
 40
1.0
 40
1.0
 40
1.0
 40
1.0
 10
36.81867222575836
 20
-126.1085748282
 30
0.0
 10
35.27922509513476
 20
-126.0622270280631
 30
0.0
 10
32.16324394265497
 20
-125.9684148608166
 30
0.0
 10
27.79100894962511
 20
-125.7485688602265
 30
0.0
 10
23.73071965656781
 20
-125.4301477667261
 30
0.0
 10
20.24628198942197
 20
-125.0029291324669
 30
0.0
 10
17.47392975021245
 20
-124.5308476697516
 30
0.0
 10
15.58969683000355
 20
-124.1436912672713
 30
0.0
 10
14.57983222328407
 20
-123.9180889442615
 30
0.0
 10
14.60376654450551
 20
-123.9232205209268
 30
0.0
 10
14.61307622632629
 20
-123.9252165393453
 30
0.0
  0
SPLINE
  5
213
330
1E0
100
AcDbEntity
  8
0
  6
Continuous
 62
     7
370
    25
100
AcDbSpline
210
0.0
220
0.0
230
1.0
 70
     8
 71
     3
 72
    15
 73
    11
 74
     0
 42
0.000000001
 43
0.00000001
 40
0.0
 40
0.0
 40
0.0
 40
0.0
 40
0.0523302342930123
 40
0.1821315983492548
 40
0.3156596916652782
 40
0.4463660681017732
 40
0.580703659143637
 40
0.7140140612676524
 40
0.8512530814642867
 40
1.0
 40
1.0
 40
1.0
 40
1.0
 10
79.38692377373205
 20
-123.9252165393321
 30
0.0
 10
79.41625886625009
 20
-123.9185808501613
 30
0.0
 10
79.51835753559905
 20
-123.8954858135891
 30
0.0
 10
78.75153315968252
 20
-124.0686382736505
 30
0.0
 10
77.15177308189509
 20
-124.4072100648357
 30
0.0
 10
74.6520886243604
 20
-124.8628337049014
 30
0.0
 10
71.41162652718852
 20
-125.3083812409558
 30
0.0
 10
67.41553174098608
 20
-125.6705810678017
 30
0.0
 10
62.69118359169812
 20
-125.9391170495144
 30
0.0
 10
59.06656165812036
 20
-126.0505937061914
 30
0.0
 10
57.18132441230861
 20
-126.1085749105921
 30
0.0
  0
LINE
  5
215
330
1E0
100
AcDbEntity
  8
0
  6
Continuous
 62
     7
370
    25
100
AcDbLine
 10
0.2640083783
 20
-116.8581623699
 30
0.0
 11
10.6310991767
 21
-119.1619603252
 31
0.0
  0
LINE
  5
216
330
1E0
100
AcDbEntity
  8
0
  6
Continuous
 62
     7
370
    25
100
AcDbLine
 10
83.376141071
 20
-119.1603513812
 30
0.0
 11
93.3874933424
 21
-116.935606432
 31
0.0
  0
LINE
  5
217
330
1E0
100
AcDbEntity
  8
0
  6
Continuous
 62
     7
370
    25
100
AcDbLine
 10
10.4944931434
 20
-119.1316034288
 30
0.0
 11
14.5245767662
 21
-123.9289113802
 31
0.0
  0
LINE
  5
218
330
1E0
100
AcDbEntity
  8
0
  6
Continuous
 62
     7
370
    25
100
AcDbLine
 10
79.4754234591
 20
-123.9289111119
 30
0.0
 11
83.5301277732
 21
-119.1022953227
 31
0.0
  0
LINE
  5
219
330
1E0
100
AcDbEntity
  8
0
  6
Continuous
 62
     7
370
    25
100
AcDbLine
 10
14.5
 20
-123.9252158737
 30
0.0
 11
14.5
 21
-137.0
 31
0.0
  0
LINE
  5
21A
330
1E0
100
AcDbEntity
  8
0
  6
Continuous
 62
     7
370
    25
100
AcDbLine
 10
79.5
 20
-137.0
 30
0.0
 11
79.5
 21
-123.9252158737
 31
0.0
  0
LINE
  5
21B
330
1E0
100
AcDbEntity
  8
0
  6
Continuous
 62
     7
370
    25
100
AcDbLine
 10
665.0
 20
-8.5283876792
 30
0.0
 11
102.0
 21
-98.5283876792
 31
0.0
  0
LINE
  5
21C
330
1E0
100
AcDbEntity
  8
0
  6
Continuous
 62
     7
370
    25
100
AcDbLine
 10
102.0
 20
-115.6774408851
 30
0.0
 11
102.0
 21
-98.5283876792
 31
0.0
  0
LINE
  5
21D
330
1E0
100
AcDbEntity
  8
0
  6
Continuous
 62
     7
370
    25
100
AcDbLine
 10
102.0
 20
-112.0
 30
0.0
 11
82.3489376363
 21
-112.0
 31
0.0
  0
LINE
  5
21E
330
1E0
100
AcDbEntity
  8
0
  6
Continuous
 62
     7
370
    25
100
AcDbLine
 10
82.3489376363
 20
-112.0
 30
0.0
 11
82.6024430573
 21
-116.5630975769
 31
0.0
  0
LINE
  5
21F
330
1E0
100
AcDbEntity
  8
0
  6
Continuous
 62
     7
370
    25
100
AcDbLine
 10
82.6024430573
 20
-116.5630975769
 30
0.0
 11
78.7429482285
 21
-116.6860818408
 31
0.0
  0
LINE
  5
220
330
1E0
100
AcDbEntity
  8
0
  6
Continuous
 62
     7
370
    25
100
AcDbLine
 10
15.2570517715
 20
-116.6860818408
 30
0.0
 11
11.3975569427
 21
-116.5630975769
 31
0.0
  0
LINE
  5
221
330
1E0
100
AcDbEntity
  8
0
  6
Continuous
 62
     7
370
    25
100
AcDbLine
 10
11.3975569427
 20
-116.5630975769
 30
0.0
 11
11.6510623637
 21
-112.0
 31
0.0
  0
LINE
  5
222
330
1E0
100
AcDbEntity
  8
0
  6
Continuous
 62
     7
370
    25
100
AcDbLine
 10
11.6510623637
 20
-112.0
 30
0.0
 11
-7.5135799422
 21
-112.0
 31
0.0
  0
LINE
  5
223
330
1E0
100
AcDbEntity
  8
0
  6
Continuous
 62
     7
370
    25
100
AcDbLine
 10
665.0
 20
-8.5283876792
 30
0.0
 11
665.0
 21
0.0
 31
0.0
  0
LINE
  5
224
330
1E0
100
AcDbEntity
  8
0
  6
Continuous
 62
     7
370
    25
100
AcDbLine
 10
-10.002468831
 20
0.0
 30
0.0
 11
-7.4298466386
 21
-115.7679986613
 31
0.0
  0
LINE
  5
225
330
1E0
100
AcDbEntity
  8
0
  6
Continuous
 62
     7
370
    25
100
AcDbLine
 10
-10.002468831
 20
0.0
 30
0.0
 11
665.0
 21
0.0
 31
0.0
  0
LINE
  5
226
330
1E0
100
AcDbEntity
  8
0
  6
Continuous
 62
     7
370
    25
100
AcDbLine
 10
54.1114986633
 20
-121.4643722782
 30
0.0
 11
54.1048941714
 21
-121.4643460191
 31
0.0
  0
LINE
  5
227
330
1E0
100
AcDbEntity
  8
0
  6
Continuous
 62
     7
370
    25
100
AcDbLine
 10
39.8951060315
 20
-121.4643460582
 30
0.0
 11
39.8896313977
 21
-121.4643678225
 31
0.0
  0
LINE
  5
228
330
1E0
100
AcDbEntity
  8
0
  6
Continuous
 62
     7
370
    25
100
AcDbLine
 10
-2.0330693358
 20
-116.5587839274
 30
0.0
 11
0.2640083783
 21
-116.8581623699
 31
0.0
  0
LINE
  5
229
330
1E0
100
AcDbEntity
  8
0
  6
Continuous
 62
     7
370
    25
100
AcDbLine
 10
53.2308802154
 20
-126.1529987165
 30
0.0
 11
54.1114986633
 21
-121.4643722782
 31
0.0
  0
LINE
  5
22A
330
1E0
100
AcDbEntity
  8
0
  6
Continuous
 62
     7
370
    25
100
AcDbLine
 10
39.8896313977
 20
-121.4643678225
 30
0.0
 11
40.7710804995
 21
-126.1530207087
 31
0.0
  0
LINE
  5
22B
330
1E0
100
AcDbEntity
  8
0
  6
Continuous
 62
     7
370
    25
100
AcDbLine
 10
79.5
 20
-137.0
 30
0.0
 11
14.5
 21
-137.0
 31
0.0
  0
VIEWPORT
  5
43E
330
1E0
100
AcDbEntity
  8
0
100
AcDbViewport
 10
0.0
 20
0.0
 30
0.0
 40
205.6
 41
156.0
 68
     1
 69
     1
 12
344.7136829649
 22
-71.7588603704
 13
0.0
 23
0.0
 14
10.0
 24
10.0
 15
10.0
 25
10.0
 16
0.0
 26
0.0
 36
1.0
 17
0.0
 27
0.0
 37
0.0
 42
50.0
 43
0.0
 44
0.0
 45
555.4781190292
 50
0.0
 51
0.0
 72
   100
 90
   557152
  1

281
     0
 71
     1
 74
     0
110
0.0
120
0.0
130
0.0
111
1.0
121
0.0
131
0.0
112
0.0
122
1.0
132
0.0
 79
     0
146
0.0
170
     0
 61
     5
348
2F
292
     1
282
     1
141
0.0
142
0.0
 63
   256
361
43F
  0
ENDBLK
  5
1E3
330
1E0
100
AcDbEntity
  8
0
100
AcDbBlockEnd
  0
BLOCK
  5
22E
330
22C
100
AcDbEntity
  8
0
100
AcDbBlockBegin
  2
*Paper_Space3
 70
     0
 10
0.0
 20
0.0
 30
0.0
  3
*Paper_Space3
  1

  0
SPLINE
  5
231
330
22C
100
AcDbEntity
  8
0
  6
Continuous
 62
     7
370
    25
100
AcDbSpline
210
0.0
220
0.0
230
1.0
 70
     8
 71
     3
 72
    11
 73
     7
 74
     0
 42
0.000000001
 43
0.00000001
 40
0.0
 40
0.0
 40
0.0
 40
0.0
 40
0.2462979433481826
 40
0.500950721790679
 40
0.7520999601673555
 40
1.0
 40
1.0
 40
1.0
 40
1.0
 10
-93.30391330630478
 20
-116.9148210302281
 30
0.0
 10
-93.26150483420753
 20
-116.9210224796524
 30
0.0
 10
-93.17524932424129
 20
-116.93363574196
 30
0.0
 10
-93.24850105720093
 20
-116.9349704161136
 30
0.0
 10
-93.4573249224811
 20
-116.9132605176805
 30
0.0
 10
-93.41066928091816
 20
-116.9281901951736
 30
0.0
 10
-93.38749334237484
 20
-116.9356064320199
 30
0.0
  0
LWPOLYLINE
  5
23A
330
22C
100
AcDbEntity
  8
0
  6
Continuous
 62
     7
370
    25
100
AcDbPolyline
 90
        5
 70
   128
 43
0.0
 10
-15.2570517715
 20
-116.6860818408
 10
-31.1285258429
 20
-116.6853637224
 10
-46.9999999289
 20
-116.6851207026
 10
-62.8714740787
 20
-116.6853637224
 10
-78.7429482285
 20
-116.6860818408
  0
SPLINE
  5
243
330
22C
100
AcDbEntity
  8
0
  6
Continuous
 62
     7
370
    25
100
AcDbSpline
210
0.0
220
0.0
230
1.0
 70
     8
 71
     3
 72
     8
 73
     4
 74
     0
 42
0.000000001
 43
0.00000001
 40
0.0
 40
0.0
 40
0.0
 40
0.0
 40
1.0
 40
1.0
 40
1.0
 40
1.0
 10
-96.0330693358331
 20
-116.5587839274359
 30
0.0
 10
-98.02379285215012
 20
-116.2886532043622
 30
0.0
 10
-100.0128115292127
 20
-115.9954380359905
 30
0.0
 10
-102.0
 20
-115.6774408850758
 30
0.0
  0
LWPOLYLINE
  5
244
330
22C
100
AcDbEntity
  8
0
  6
Continuous
 62
     7
370
    25
100
AcDbPolyline
 90
        4
 70
   128
 43
0.0
 10
-82.6024430573
 20
-116.5630975769
 10
-84.5184866566
 20
-116.5624417696
 10
-92.0447771918
 20
-116.5599940477
 10
-96.0330693358
 20
-116.5587839274
  0
SPLINE
  5
246
330
22C
100
AcDbEntity
  8
0
  6
Continuous
 62
     7
370
    25
100
AcDbSpline
210
0.0
220
0.0
230
1.0
 70
     8
 71
     3
 72
     8
 73
     4
 74
     0
 42
0.000000001
 43
0.00000001
 40
0.0
 40
0.0
 40
0.0
 40
0.0
 40
1.0
 40
1.0
 40
1.0
 40
1.0
 10
2.03306933583336
 20
-116.5587839274359
 30
0.0
 10
3.833672034979918
 20
-116.3144516004692
 30
0.0
 10
5.632637021961262
 20
-116.0513070215193
 30
0.0
 10
7.429846638566884
 20
-115.7679986613262
 30
0.0
  0
LWPOLYLINE
  5
247
330
22C
100
AcDbEntity
  8
0
  6
Continuous
 62
     7
370
    25
100
AcDbPolyline
 90
        4
 70
   128
 43
0.0
 10
2.0330693358
 20
-116.5587839274
 10
-0.1135629225
 20
-116.5594276524
 10
-5.7555599415
 20
-116.5612038613
 10
-11.3975569427
 20
-116.5630975769
  0
SPLINE
  5
249
330
22C
100
AcDbEntity
  8
0
  6
Continuous
 62
     7
370
    25
100
AcDbSpline
210
0.0
220
0.0
230
1.0
 70
     8
 71
     3
 72
     8
 73
     4
 74
     0
 42
0.000000001
 43
0.00000001
 40
0.0
 40
0.0
 40
0.0
 40
0.0
 40
1.0
 40
1.0
 40
1.0
 40
1.0
 10
-58.57775011553568
 20
-121.4171717100985
 30
0.0
 10
-57.11279345543835
 20
-121.4318332477066
 30
0.0
 10
-55.61845883602678
 20
-121.4478170917597
 30
0.0
 10
-54.10489396846179
 20
-121.4643460582107
 30
0.0
  0
SPLINE
  5
24A
330
22C
100
AcDbEntity
  8
0
  6
Continuous
 62
     7
370
    25
100
AcDbSpline
210
0.0
220
0.0
230
1.0
 70
     8
 71
     3
 72
     8
 73
     4
 74
     0
 42
0.000000001
 43
0.00000001
 40
0.0000000000000004
 40
0.0000000000000004
 40
0.0000000000000004
 40
0.0000000000000004
 40
0.0000335162616695
 40
0.0000335162616695
 40
0.0000335162616695
 40
0.0000335162616695
 10
-58.5461435185814
 20
-121.4174629721745
 30
0.0
 10
-58.55668086104499
 20
-121.4173656970005
 30
0.0
 10
-58.56721639618267
 20
-121.4172686095105
 30
0.0
 10
-58.57775011553562
 20
-121.4171717100985
 30
0.0
  0
SPLINE
  5
24B
330
22C
100
AcDbEntity
  8
0
  6
Continuous
 62
     7
370
    25
100
AcDbSpline
210
0.0
220
0.0
230
1.0
 70
     8
 71
     3
 72
    12
 73
     8
 74
     0
 42
0.000000001
 43
0.00000001
 40
0.0
 40
0.0
 40
0.0
 40
0.0
 40
0.25
 40
0.25
 40
0.5
 40
0.5
 40
1.0
 40
1.0
 40
1.0
 40
1.0
 10
-58.54614351858323
 20
-121.4174629721745
 30
0.0
 10
-61.72095271025929
 20
-121.0122864003397
 30
0.0
 10
-64.86610756999822
 20
-120.606908837817
 30
0.0
 10
-71.13763679422541
 20
-119.7966136294947
 30
0.0
 10
-74.26206179523636
 20
-119.3916162754653
 30
0.0
 10
-83.61716882369625
 20
-118.1770135226351
 30
0.0
 10
-89.82993974244202
 20
-117.3677717291014
 30
0.0
 10
-96.03306933583316
 20
-116.5587839274359
 30
0.0
  0
SPLINE
  5
24C
330
22C
100
AcDbEntity
  8
0
  6
Continuous
 62
     7
370
    25
100
AcDbSpline
210
0.0
220
0.0
230
1.0
 70
     8
 71
     3
 72
    12
 73
     8
 74
     0
 42
0.000000001
 43
0.00000001
 40
0.0
 40
0.0
 40
0.0
 40
0.0
 40
0.5
 40
0.5
 40
0.75
 40
0.75
 40
1.0
 40
1.0
 40
1.0
 40
1.0
 10
-78.74294822847749
 20
-116.6860818408072
 30
0.0
 10
-74.64306691116856
 20
-117.4825426996692
 30
0.0
 10
-70.54272166826509
 20
-118.2789937177692
 30
0.0
 10
-64.38808346930375
 20
-119.4736052049325
 30
0.0
 10
-62.33589550206259
 20
-119.8717980179162
 30
0.0
 10
-58.22708405446713
 20
-120.6681289721191
 30
0.0
 10
-56.17186341148162
 20
-121.0662602063161
 30
0.0
 10
-54.10489396846202
 20
-121.4643460582107
 30
0.0
  0
SPLINE
  5
24D
330
22C
100
AcDbEntity
  8
0
  6
Continuous
 62
     7
370
    25
100
AcDbSpline
210
0.0
220
0.0
230
1.0
 70
     8
 71
     3
 72
     8
 73
     4
 74
     0
 42
0.000000001
 43
0.00000001
 40
0.0000000000000009
 40
0.0000000000000009
 40
0.0000000000000009
 40
0.0000000000000009
 40
0.000033513361494
 40
0.000033513361494
 40
0.000033513361494
 40
0.000033513361494
 10
-35.42225262002302
 20
-121.4171717353936
 30
0.0
 10
-35.43278542815098
 20
-121.4172686264471
 30
0.0
 10
-35.44332005184641
 20
-121.4173657055579
 30
0.0
 10
-35.4538564826335
 20
-121.4174629723297
 30
0.0
  0
SPLINE
  5
24E
330
22C
100
AcDbEntity
  8
0
  6
Continuous
 62
     7
370
    25
100
AcDbSpline
210
0.0
220
0.0
230
1.0
 70
     8
 71
     3
 72
     8
 73
     4
 74
     0
 42
0.000000001
 43
0.00000001
 40
0.0
 40
0.0
 40
0.0
 40
0.0
 40
1.0
 40
1.0
 40
1.0
 40
1.0
 10
-39.89510582860506
 20
-121.464346019127
 30
0.0
 10
-38.3815403844095
 20
-121.4478168580316
 30
0.0
 10
-36.88720803497747
 20
-121.4318332684611
 30
0.0
 10
-35.42225262002391
 20
-121.4171717353937
 30
0.0
  0
SPLINE
  5
24F
330
22C
100
AcDbEntity
  8
0
  6
Continuous
 62
     7
370
    25
100
AcDbSpline
210
0.0
220
0.0
230
1.0
 70
     8
 71
     3
 72
    12
 73
     8
 74
     0
 42
0.000000001
 43
0.00000001
 40
0.0
 40
0.0
 40
0.0
 40
0.0
 40
0.25
 40
0.25
 40
0.5
 40
0.5
 40
1.0
 40
1.0
 40
1.0
 40
1.0
 10
-39.89510582860489
 20
-121.464346019127
 30
0.0
 10
-37.82813601438689
 20
-121.0662600955546
 30
0.0
 10
-35.77291574628655
 20
-120.6681289335231
 30
0.0
 10
-31.66410445847867
 20
-119.8717980102497
 30
0.0
 10
-29.61191646178068
 20
-119.4736051915596
 30
0.0
 10
-23.4572782930082
 20
-118.2789937102462
 30
0.0
 10
-19.35693306919067
 20
-117.4825426958536
 30
0.0
 10
-15.2570517715232
 20
-116.6860818408072
 30
0.0
  0
SPLINE
  5
250
330
22C
100
AcDbEntity
  8
0
  6
Continuous
 62
     7
370
    25
100
AcDbSpline
210
0.0
220
0.0
230
1.0
 70
     8
 71
     3
 72
    12
 73
     8
 74
     0
 42
0.000000001
 43
0.00000001
 40
0.0
 40
0.0
 40
0.0
 40
0.0
 40
0.5000000000000007
 40
0.5000000000000007
 40
0.7500000000000003
 40
0.7500000000000003
 40
1.0
 40
1.0
 40
1.0
 40
1.0
 10
2.03306933583336
 20
-116.5587839274359
 30
0.0
 10
-4.170058258949005
 20
-117.3677714684506
 30
0.0
 10
-10.38282717560196
 20
-118.1770130013869
 30
0.0
 10
-19.73793116142308
 20
-119.3916153619185
 30
0.0
 10
-22.86235484651317
 20
-119.7966125448477
 30
0.0
 10
-29.13386945064311
 20
-120.6069058734461
 30
0.0
 10
-32.27902159823914
 20
-121.0122831215313
 30
0.0
 10
-35.45385648263549
 20
-121.4174629723297
 30
0.0
  0
SPLINE
  5
253
330
22C
100
AcDbEntity
  8
0
  6
Continuous
 62
     7
370
    25
100
AcDbSpline
210
0.0
220
0.0
230
1.0
 70
     8
 71
     3
 72
    14
 73
    10
 74
     0
 42
0.000000001
 43
0.00000001
 40
0.0
 40
0.0
 40
0.0
 40
0.0
 40
0.25
 40
0.25
 40
0.5
 40
0.5
 40
0.75
 40
0.75
 40
1.0
 40
1.0
 40
1.0
 40
1.0
 10
-54.11036860234497
 20
-121.4643678225196
 30
0.0
 10
-52.93813546216514
 20
-121.4605221301878
 30
0.0
 10
-51.75839573602742
 20
-121.4576650415704
 30
0.0
 10
-49.38394322891876
 20
-121.4537759167503
 30
0.0
 10
-48.19051822885634
 20
-121.4528023365919
 30
0.0
 10
-45.80740920096188
 20
-121.4528036637507
 30
0.0
 10
-44.61304845706254
 20
-121.453781151211
 30
0.0
 10
-42.24008374995631
 20
-121.4576678675725
 30
0.0
 10
-41.06071990659632
 20
-121.4605243470861
 30
0.0
 10
-39.88850133673388
 20
-121.4643722782132
 30
0.0
  0
SPLINE
  5
255
330
22C
100
AcDbEntity
  8
0
  6
Continuous
 62
     7
370
    25
100
AcDbSpline
210
0.0
220
0.0
230
1.0
 70
     8
 71
     3
 72
    15
 73
    11
 74
     0
 42
0.000000001
 43
0.00000001
 40
0.0
 40
0.0
 40
0.0
 40
0.0
 40
0.1302233975400876
 40
0.2642242359824401
 40
0.3941708461923361
 40
0.5279672388460979
 40
0.6570872193001839
 40
0.7895525869062887
 40
0.9259520476843022
 40
1.0
 40
1.0
 40
1.0
 40
1.0
 10
-35.45385648263405
 20
-121.4174629723297
 30
0.0
 10
-33.5786627324357
 20
-121.3620275359297
 30
0.0
 10
-29.77388075527465
 20
-121.2495486257965
 30
0.0
 10
-24.66606879592698
 20
-120.9847387987059
 30
0.0
 10
-20.13449250627786
 20
-120.6147398633312
 30
0.0
 10
-16.43643570505127
 20
-120.164171524776
 30
0.0
 10
-13.55019454268269
 20
-119.7063756482187
 30
0.0
 10
-11.58030044825104
 20
-119.3455124155895
 30
0.0
 10
-10.54052758446389
 20
-119.1407498277219
 30
0.0
 10
-10.6080577034261
 20
-119.1540441592122
 30
0.0
 10
-10.63181882719222
 20
-119.1587218979869
 30
0.0
  0
SPLINE
  5
256
330
22C
100
AcDbEntity
  8
0
  6
Continuous
 62
     7
370
    25
100
AcDbSpline
210
0.0
220
0.0
230
1.0
 70
     8
 71
     3
 72
    15
 73
    11
 74
     0
 42
0.000000001
 43
0.00000001
 40
0.0
 40
0.0
 40
0.0
 40
0.0
 40
0.0632739622173117
 40
0.2041642894394637
 40
0.3396185165176005
 40
0.4789093430677968
 40
0.615316449426925
 40
0.743471098689616
 40
0.869993990161321
 40
1.0
 40
1.0
 40
1.0
 40
1.0
 10
-83.37546011213028
 20
-119.1572870662899
 30
0.0
 10
-83.40356612999739
 20
-119.1517372489135
 30
0.0
 10
-83.4942550163216
 20
-119.1338298114548
 30
0.0
 10
-82.50195002785638
 20
-119.3298560783615
 30
0.0
 10
-80.48362544361697
 20
-119.7012479658432
 30
0.0
 10
-77.46674692127876
 20
-120.1803237964069
 30
0.0
 10
-73.61279863615106
 20
-120.6404196334906
 30
0.0
 10
-69.11161137806182
 20
-120.997230981609
 30
0.0
 10
-64.11285376978232
 20
-121.2529702544023
 30
0.0
 10
-60.41843439532318
 20
-121.3621379775407
 30
0.0
 10
-58.546143518581
 20
-121.4174629721745
 30
0.0
  0
SPLINE
  5
258
330
22C
100
AcDbEntity
  8
0
  6
Continuous
 62
     7
370
    25
100
AcDbSpline
210
0.0
220
0.0
230
1.0
 70
     8
 71
     3
 72
    14
 73
    10
 74
     0
 42
0.000000001
 43
0.00000001
 40
0.0
 40
0.0
 40
0.0
 40
0.0
 40
0.25
 40
0.25
 40
0.5
 40
0.5
 40
0.75
 40
0.75
 40
1.0
 40
1.0
 40
1.0
 40
1.0
 10
-40.76911978461933
 20
-126.1529987165122
 30
0.0
 10
-41.7959445955201
 20
-126.1493196780617
 30
0.0
 10
-42.82902004621114
 20
-126.1467056723417
 30
0.0
 10
-44.90759642352565
 20
-126.1430548375457
 30
0.0
 10
-45.95420630397545
 20
-126.1421343146287
 30
0.0
 10
-48.04277081310693
 20
-126.1421369343317
 30
0.0
 10
-49.08878209422257
 20
-126.1430411060025
 30
0.0
 10
-51.16867652296697
 20
-126.146702003761
 30
0.0
 10
-52.20208248037633
 20
-126.149311788675
 30
0.0
 10
-53.22891950051095
 20
-126.1530207087226
 30
0.0
  0
SPLINE
  5
259
330
22C
100
AcDbEntity
  8
0
  6
Continuous
 62
     7
370
    25
100
AcDbSpline
210
0.0
220
0.0
230
1.0
 70
     8
 71
     3
 72
     8
 73
     4
 74
     0
 42
0.000000001
 43
0.00000001
 40
0.0
 40
0.0
 40
0.0
 40
0.0
 40
0.0066333156089189
 40
0.0066333156089189
 40
0.0066333156089189
 40
0.0066333156089189
 10
-53.22891950051112
 20
-126.1530207087225
 30
0.0
 10
-53.52307096432723
 20
-124.5901395745822
 30
0.0
 10
-53.81680721381327
 20
-123.0272549823765
 30
0.0
 10
-54.11036860234125
 20
-121.4643678225196
 30
0.0
  0
SPLINE
  5
25A
330
22C
100
AcDbEntity
  8
0
  6
Continuous
 62
     7
370
    25
100
AcDbSpline
210
0.0
220
0.0
230
1.0
 70
     8
 71
     3
 72
     8
 73
     4
 74
     0
 42
0.000000001
 43
0.00000001
 40
0.0
 40
0.0
 40
0.0
 40
0.0
 40
0.0066273205339818
 40
0.0066273205339818
 40
0.0066273205339818
 40
0.0066273205339818
 10
-35.42225262002552
 20
-121.4171717353937
 30
0.0
 10
-35.88627908186387
 20
-122.9809524610856
 30
0.0
 10
-36.35123245971988
 20
-124.5447471840386
 30
0.0
 10
-36.81867558766494
 20
-126.1085749105913
 30
0.0
  0
SPLINE
  5
25B
330
22C
100
AcDbEntity
  8
0
  6
Continuous
 62
     7
370
    25
100
AcDbSpline
210
0.0
220
0.0
230
1.0
 70
     8
 71
     3
 72
     8
 73
     4
 74
     0
 42
0.000000001
 43
0.00000001
 40
0.0
 40
0.0
 40
0.0
 40
0.0
 40
1.0
 40
1.0
 40
1.0
 40
1.0
 10
-36.8186755876605
 20
-126.1085749105913
 30
0.0
 10
-38.11230885435624
 20
-126.1224342760068
 30
0.0
 10
-39.43220513630052
 20
-126.1374603457159
 30
0.0
 10
-40.76911978461989
 20
-126.1529987165123
 30
0.0
  0
SPLINE
  5
25C
330
22C
100
AcDbEntity
  8
0
  6
Continuous
 62
     7
370
    25
100
AcDbSpline
210
0.0
220
0.0
230
1.0
 70
     8
 71
     3
 72
     8
 73
     4
 74
     0
 42
0.000000001
 43
0.00000001
 40
0.0
 40
0.0
 40
0.0
 40
0.0
 40
1.0
 40
1.0
 40
1.0
 40
1.0
 10
-53.22891950051112
 20
-126.1530207087225
 30
0.0
 10
-54.56650514353473
 20
-126.1374694131312
 30
0.0
 10
-55.8870607652408
 20
-126.1224409516656
 30
0.0
 10
-57.18132777426582
 20
-126.1085748281993
 30
0.0
  0
SPLINE
  5
25D
330
22C
100
AcDbEntity
  8
0
  6
Continuous
 62
     7
370
    25
100
AcDbSpline
210
0.0
220
0.0
230
1.0
 70
     8
 71
     3
 72
     8
 73
     4
 74
     0
 42
0.000000001
 43
0.00000001
 40
0.0
 40
0.0
 40
0.0
 40
0.0
 40
0.0066273204602602
 40
0.0066273204602602
 40
0.0066273204602602
 40
0.0066273204602602
 10
-57.18132777427093
 20
-126.1085748281993
 30
0.0
 10
-57.64877070635782
 20
-124.5447471200865
 30
0.0
 10
-58.11372386749353
 20
-122.9809524163077
 30
0.0
 10
-58.57775011553484
 20
-121.4171717100985
 30
0.0
  0
SPLINE
  5
25E
330
22C
100
AcDbEntity
  8
0
  6
Continuous
 62
     7
370
    25
100
AcDbSpline
210
0.0
220
0.0
230
1.0
 70
     8
 71
     3
 72
    15
 73
    11
 74
     0
 42
0.000000001
 43
0.00000001
 40
0.0
 40
0.0
 40
0.0
 40
0.0
 40
0.1211220711766321
 40
0.245162099709671
 40
0.377467056063755
 40
0.5136002574322591
 40
0.6461797856064004
 40
0.7825699839679734
 40
0.9154267108789385
 40
1.0
 40
1.0
 40
1.0
 40
1.0
 10
-57.18132777426571
 20
-126.1085748281994
 30
0.0
 10
-58.72077490488942
 20
-126.0622270280624
 30
0.0
 10
-61.83675605736949
 20
-125.9684148608155
 30
0.0
 10
-66.20899105039796
 20
-125.748568860225
 30
0.0
 10
-70.26928034345175
 20
-125.4301477667242
 30
0.0
 10
-73.75371801059572
 20
-125.0029291324641
 30
0.0
 10
-76.52607024979325
 20
-124.5308476697508
 30
0.0
 10
-78.41030317002756
 20
-124.1436912672643
 30
0.0
 10
-79.42016777684935
 20
-123.9180889442317
 30
0.0
 10
-79.39623345557727
 20
-123.9232205209082
 30
0.0
 10
-79.38692377373205
 20
-123.9252165393321
 30
0.0
  0
SPLINE
  5
25F
330
22C
100
AcDbEntity
  8
0
  6
Continuous
 62
     7
370
    25
100
AcDbSpline
210
0.0
220
0.0
230
1.0
 70
     8
 71
     3
 72
    15
 73
    11
 74
     0
 42
0.000000001
 43
0.00000001
 40
0.0
 40
0.0
 40
0.0
 40
0.0
 40
0.0523302343601566
 40
0.182131598407208
 40
0.3156596917137938
 40
0.4463660681410871
 40
0.580703659173433
 40
0.7140140612880026
 40
0.8512530814749565
 40
1.0
 40
1.0
 40
1.0
 40
1.0
 10
-14.61307622632629
 20
-123.9252165393453
 30
0.0
 10
-14.58374113375405
 20
-123.9185808501623
 30
0.0
 10
-14.4816424643151
 20
-123.8954858135698
 30
0.0
 10
-15.24846684027831
 20
-124.0686382736417
 30
0.0
 10
-16.84822691810312
 20
-124.4072100648356
 30
0.0
 10
-19.34791137562286
 20
-124.8628337048984
 30
0.0
 10
-22.58837347279447
 20
-125.3083812409543
 30
0.0
 10
-26.58446825899269
 20
-125.6705810677999
 30
0.0
 10
-31.30881640827665
 20
-125.9391170495132
 30
0.0
 10
-34.93343834185142
 20
-126.0505937061905
 30
0.0
 10
-36.8186755876605
 20
-126.1085749105913
 30
0.0
  0
LINE
  5
262
330
22C
100
AcDbEntity
  8
0
  6
Continuous
 62
     7
370
    25
100
AcDbLine
 10
-10.6310991767
 20
-119.1619603252
 30
0.0
 11
-0.2640081517
 21
-116.8581623196
 31
0.0
  0
LINE
  5
263
330
22C
100
AcDbEntity
  8
0
  6
Continuous
 62
     7
370
    25
100
AcDbLine
 10
-93.3874933424
 20
-116.935606432
 30
0.0
 11
-83.376141071
 21
-119.1603513812
 31
0.0
  0
LINE
  5
264
330
22C
100
AcDbEntity
  8
0
  6
Continuous
 62
     7
370
    25
100
AcDbLine
 10
-83.5055068566
 20
-119.1316034288
 30
0.0
 11
-79.4754234591
 21
-123.9289111119
 31
0.0
  0
LINE
  5
265
330
22C
100
AcDbEntity
  8
0
  6
Continuous
 62
     7
370
    25
100
AcDbLine
 10
-14.5245767662
 20
-123.9289113802
 30
0.0
 11
-10.4698344382
 21
-119.10225034
 31
0.0
  0
LINE
  5
266
330
22C
100
AcDbEntity
  8
0
  6
Continuous
 62
     7
370
    25
100
AcDbLine
 10
-79.5
 20
-123.9252158737
 30
0.0
 11
-79.5
 21
-137.0
 31
0.0
  0
LINE
  5
267
330
22C
100
AcDbEntity
  8
0
  6
Continuous
 62
     7
370
    25
100
AcDbLine
 10
-14.5
 20
-137.0
 30
0.0
 11
-14.5
 21
-123.9252158737
 31
0.0
  0
LINE
  5
268
330
22C
100
AcDbEntity
  8
0
  6
Continuous
 62
     7
370
    25
100
AcDbLine
 10
7.5135799422
 20
-112.0
 30
0.0
 11
-11.6510623637
 21
-112.0
 31
0.0
  0
LINE
  5
269
330
22C
100
AcDbEntity
  8
0
  6
Continuous
 62
     7
370
    25
100
AcDbLine
 10
-11.6510623637
 20
-112.0
 30
0.0
 11
-11.3975569427
 21
-116.5630975769
 31
0.0
  0
LINE
  5
26A
330
22C
100
AcDbEntity
  8
0
  6
Continuous
 62
     7
370
    25
100
AcDbLine
 10
-11.3975569427
 20
-116.5630975769
 30
0.0
 11
-15.2570517715
 21
-116.6860818408
 31
0.0
  0
LINE
  5
26B
330
22C
100
AcDbEntity
  8
0
  6
Continuous
 62
     7
370
    25
100
AcDbLine
 10
-78.7429482285
 20
-116.6860818408
 30
0.0
 11
-82.6024430573
 21
-116.5630975769
 31
0.0
  0
LINE
  5
26C
330
22C
100
AcDbEntity
  8
0
  6
Continuous
 62
     7
370
    25
100
AcDbLine
 10
-82.6024430573
 20
-116.5630975769
 30
0.0
 11
-82.3489376363
 21
-112.0
 31
0.0
  0
LINE
  5
26D
330
22C
100
AcDbEntity
  8
0
  6
Continuous
 62
     7
370
    25
100
AcDbLine
 10
-82.3489376363
 20
-112.0
 30
0.0
 11
-102.0
 21
-112.0
 31
0.0
  0
LINE
  5
26E
330
22C
100
AcDbEntity
  8
0
  6
Continuous
 62
     7
370
    25
100
AcDbLine
 10
-102.0
 20
-98.5283876792
 30
0.0
 11
-102.0
 21
-115.6774408851
 31
0.0
  0
LINE
  5
26F
330
22C
100
AcDbEntity
  8
0
  6
Continuous
 62
     7
370
    25
100
AcDbLine
 10
-665.0
 20
-8.5283876792
 30
0.0
 11
-102.0
 21
-98.5283876792
 31
0.0
  0
LINE
  5
270
330
22C
100
AcDbEntity
  8
0
  6
Continuous
 62
     7
370
    25
100
AcDbLine
 10
-665.0
 20
0.0
 30
0.0
 11
-665.0
 21
-8.5283876792
 31
0.0
  0
LINE
  5
271
330
22C
100
AcDbEntity
  8
0
  6
Continuous
 62
     7
370
    25
100
AcDbLine
 10
10.002468831
 20
0.0
 30
0.0
 11
7.4298466386
 21
-115.7679986613
 31
0.0
  0
LINE
  5
272
330
22C
100
AcDbEntity
  8
0
  6
Continuous
 62
     7
370
    25
100
AcDbLine
 10
-665.0
 20
0.0
 30
0.0
 11
10.002468831
 21
0.0
 31
0.0
  0
LINE
  5
273
330
22C
100
AcDbEntity
  8
0
  6
Continuous
 62
     7
370
    25
100
AcDbLine
 10
-54.1048939685
 20
-121.4643460582
 30
0.0
 11
-54.1103686023
 21
-121.4643678225
 31
0.0
  0
LINE
  5
274
330
22C
100
AcDbEntity
  8
0
  6
Continuous
 62
     7
370
    25
100
AcDbLine
 10
-39.8885013367
 20
-121.4643722782
 30
0.0
 11
-39.8951058286
 21
-121.4643460191
 31
0.0
  0
LINE
  5
275
330
22C
100
AcDbEntity
  8
0
  6
Continuous
 62
     7
370
    25
100
AcDbLine
 10
2.0330693358
 20
-116.5587839274
 30
0.0
 11
-0.2640081517
 21
-116.8581623196
 31
0.0
  0
LINE
  5
276
330
22C
100
AcDbEntity
  8
0
  6
Continuous
 62
     7
370
    25
100
AcDbLine
 10
-39.8885013367
 20
-121.4643722782
 30
0.0
 11
-40.7691197846
 21
-126.1529987165
 31
0.0
  0
LINE
  5
277
330
22C
100
AcDbEntity
  8
0
  6
Continuous
 62
     7
370
    25
100
AcDbLine
 10
-14.5
 20
-137.0
 30
0.0
 11
-79.5
 21
-137.0
 31
0.0
  0
VIEWPORT
  5
440
330
22C
100
AcDbEntity
  8
0
100
AcDbViewport
 10
0.0
 20
0.0
 30
0.0
 40
205.6
 41
156.0
 68
     1
 69
     1
 12
344.7136829649
 22
-71.7588603704
 13
0.0
 23
0.0
 14
10.0
 24
10.0
 15
10.0
 25
10.0
 16
0.0
 26
0.0
 36
1.0
 17
0.0
 27
0.0
 37
0.0
 42
50.0
 43
0.0
 44
0.0
 45
555.4781190292
 50
0.0
 51
0.0
 72
   100
 90
   557152
  1

281
     0
 71
     1
 74
     0
110
0.0
120
0.0
130
0.0
111
1.0
121
0.0
131
0.0
112
0.0
122
1.0
132
0.0
 79
     0
146
0.0
170
     0
 61
     5
348
2F
292
     1
282
     1
141
0.0
142
0.0
 63
   256
361
441
  0
ENDBLK
  5
22F
330
22C
100
AcDbEntity
  8
0
100
AcDbBlockEnd
  0
BLOCK
  5
27A
330
278
100
AcDbEntity
  8
0
100
AcDbBlockBegin
  2
*Paper_Space4
 70
     0
 10
0.0
 20
0.0
 30
0.0
  3
*Paper_Space4
  1

  0
SPLINE
  5
27E
330
278
100
AcDbEntity
  8
0
  6
Continuous
 62
     7
370
    25
100
AcDbSpline
210
0.0
220
0.0
230
1.0
 70
     8
 71
     3
 72
    10
 73
     6
 74
     0
 42
0.000000001
 43
0.00000001
 40
0.0
 40
0.0
 40
0.0
 40
0.0
 40
0.3404497828284309
 40
0.680063201491028
 40
1.0
 40
1.0
 40
1.0
 40
1.0
 10
-274.7040338926947
 20
-118.5229198970044
 30
0.0
 10
-273.1797232668766
 20
-118.5812368574883
 30
0.0
 10
-270.1348467049107
 20
-118.6977275144023
 30
0.0
 10
-265.3269227235684
 20
-118.8810942748815
 30
0.0
 10
-261.8865105998999
 20
-119.0112436261274
 30
0.0
 10
-260.2176241197797
 20
-119.0743769034451
 30
0.0
  0
SPLINE
  5
281
330
278
100
AcDbEntity
  8
0
  6
Continuous
 62
     7
370
    25
100
AcDbSpline
210
0.0
220
0.0
230
1.0
 70
     8
 71
     3
 72
    10
 73
     6
 74
     0
 42
0.000000001
 43
0.00000001
 40
0.0
 40
0.0
 40
0.0
 40
0.0
 40
0.3199551031420876
 40
0.6595881302336679
 40
0.9999999999999999
 40
0.9999999999999999
 40
0.9999999999999999
 40
0.9999999999999999
 10
-59.78210306943036
 20
-119.0743666084953
 30
0.0
 10
-58.11324674042691
 20
-119.011234425717
 30
0.0
 10
-54.67289584473522
 20
-118.8810872957372
 30
0.0
 10
-49.86533189407216
 20
-118.697734068487
 30
0.0
 10
-46.82076730233847
 20
-118.5812552161115
 30
0.0
 10
-45.29674156508928
 20
-118.5229490894005
 30
0.0
  0
SPLINE
  5
285
330
278
100
AcDbEntity
  8
0
  6
Continuous
 62
     7
370
    25
100
AcDbSpline
210
0.0
220
0.0
230
1.0
 70
     8
 71
     3
 72
    22
 73
    18
 74
     0
 42
0.000000001
 43
0.00000001
 40
0.0
 40
0.0
 40
0.0
 40
0.0
 40
0.1250000000000002
 40
0.1250000000000002
 40
0.2500000000000003
 40
0.2500000000000003
 40
0.3750000000000005
 40
0.3750000000000005
 40
0.5000000000000007
 40
0.5000000000000007
 40
0.6250000000000004
 40
0.6250000000000004
 40
0.7500000000000003
 40
0.7500000000000003
 40
0.8750000000000001
 40
0.8750000000000001
 40
1.0
 40
1.0
 40
1.0
 40
1.0
 10
-15.28771101484128
 20
-115.7679986613254
 30
0.0
 10
-27.34712764773939
 20
-115.716147035204
 30
0.0
 10
-39.40650751761048
 20
-115.6567199958648
 30
0.0
 10
-63.5252151354129
 20
-115.5271256364403
 30
0.0
 10
-75.58454192681515
 20
-115.4567612133608
 30
0.0
 10
-99.70323031953382
 20
-115.3232053207045
 30
0.0
 10
-111.7625944458356
 20
-115.2605341512471
 30
0.0
 10
-135.8814974534336
 20
-115.1712019399848
 30
0.0
 10
-147.9409697424829
 20
-115.1453414439375
 30
0.0
 10
-172.0597834539195
 20
-115.1453424815757
 30
0.0
 10
-184.1191480909256
 20
-115.1712038111083
 30
0.0
 10
-208.2378159657032
 20
-115.2605361912228
 30
0.0
 10
-220.2971241202596
 20
-115.3232072128576
 30
0.0
 10
-244.4157105831348
 20
-115.4567626821598
 30
0.0
 10
-256.4749860441321
 20
-115.5271267583036
 30
0.0
 10
-280.5935921375458
 20
-115.6567204904425
 30
0.0
 10
-292.6529217933186
 20
-115.7161472477847
 30
0.0
 10
-304.7122889851696
 20
-115.7679986613254
 30
0.0
  0
SPLINE
  5
28C
330
278
100
AcDbEntity
  8
0
  6
Continuous
 62
     7
370
    25
100
AcDbSpline
210
0.0
220
0.0
230
1.0
 70
     8
 71
     3
 72
     8
 73
     4
 74
     0
 42
0.000000001
 43
0.00000001
 40
0.0
 40
0.0
 40
0.0
 40
0.0
 40
1.0
 40
1.0
 40
1.0
 40
1.0
 10
-9.890933712101951
 20
-116.558783927436
 30
0.0
 10
-11.69153641125034
 20
-116.3144516004691
 30
0.0
 10
-13.49050139823379
 20
-116.0513070215187
 30
0.0
 10
-15.28771101484128
 20
-115.7679986613254
 30
0.0
  0
SPLINE
  5
28D
330
278
100
AcDbEntity
  8
0
  6
Continuous
 62
     7
370
    25
100
AcDbSpline
210
0.0
220
0.0
230
1.0
 70
     8
 71
     3
 72
    12
 73
     8
 74
     0
 42
0.000000001
 43
0.00000001
 40
0.0
 40
0.0
 40
0.0
 40
0.0
 40
0.5
 40
0.5
 40
0.75
 40
0.75
 40
1.0
 40
1.0
 40
1.0
 40
1.0
 10
-9.89093371210198
 20
-116.5587839274359
 30
0.0
 10
-29.03321606308468
 20
-117.3677714683768
 30
0.0
 10
-48.17236827631633
 20
-118.1770130012928
 30
0.0
 10
-76.86935906890022
 20
-119.3916153615869
 30
0.0
 10
-86.43304417809581
 20
-119.7966125447676
 30
0.0
 10
-105.5529376496459
 20
-120.6069058735194
 30
0.0
 10
-115.1097866084239
 20
-121.0122831216072
 30
0.0
 10
-124.6568874806447
 20
-121.4174629721745
 30
0.0
  0
SPLINE
  5
28E
330
278
100
AcDbEntity
  8
0
  6
Continuous
 62
     7
370
    25
100
AcDbSpline
210
0.0
220
0.0
230
1.0
 70
     8
 71
     3
 72
    54
 73
    50
 74
     0
 42
0.000000001
 43
0.00000001
 40
0.0
 40
0.0
 40
0.0
 40
0.0
 40
0.0624999999999994
 40
0.0624999999999994
 40
0.1249999999999989
 40
0.1249999999999989
 40
0.1406249999999989
 40
0.1406249999999989
 40
0.1562499999999989
 40
0.1562499999999989
 40
0.1874999999999994
 40
0.1874999999999994
 40
0.2500000000000007
 40
0.2500000000000007
 40
0.2812500000000013
 40
0.2812500000000013
 40
0.3125000000000018
 40
0.3125000000000018
 40
0.375000000000003
 40
0.375000000000003
 40
0.4062500000000036
 40
0.4062500000000036
 40
0.4375000000000042
 40
0.4375000000000042
 40
0.5000000000000046
 40
0.5000000000000046
 40
0.5312500000000042
 40
0.5312500000000042
 40
0.562500000000004
 40
0.562500000000004
 40
0.6250000000000034
 40
0.6250000000000034
 40
0.6562500000000031
 40
0.6562500000000031
 40
0.6875000000000029
 40
0.6875000000000029
 40
0.7500000000000022
 40
0.7500000000000022
 40
0.781250000000002
 40
0.781250000000002
 40
0.8125000000000017
 40
0.8125000000000017
 40
0.8750000000000011
 40
0.8750000000000011
 40
0.9375000000000006
 40
0.9375000000000006
 40
0.9687500000000003
 40
0.9687500000000003
 40
1.0
 40
1.0
 40
1.0
 40
1.0
 10
-195.3431125156974
 20
-121.4174629723297
 30
0.0
 10
-194.7266330881646
 20
-121.3686480477594
 30
0.0
 10
-193.9723550801993
 20
-121.3123376676679
 30
0.0
 10
-192.1975213119829
 20
-121.1757155458124
 30
0.0
 10
-191.1768966021452
 20
-121.0953972709287
 30
0.0
 10
-189.7273532394932
 20
-120.9741316596319
 30
0.0
 10
-189.4282097216422
 20
-120.9488006265502
 30
0.0
 10
-188.8177388274818
 20
-120.8964410112115
 30
0.0
 10
-188.5058143010761
 20
-120.8693702469107
 30
0.0
 10
-187.5503220346189
 20
-120.7855015398216
 30
0.0
 10
-186.8870304842643
 20
-120.7260225251198
 30
0.0
 10
-184.8195022614994
 20
-120.5379960822505
 30
0.0
 10
-183.3380122705701
 20
-120.3994380936305
 30
0.0
 10
-180.9597776597928
 20
-120.1838648600747
 30
0.0
 10
-180.1387471031832
 20
-120.1106502632726
 30
0.0
 10
-178.4722478648644
 20
-119.9672229001575
 30
0.0
 10
-177.623817773646
 20
-119.8967338553339
 30
0.0
 10
-175.0344205275447
 20
-119.6930987388945
 30
0.0
 10
-173.2497283353443
 20
-119.5679698323738
 30
0.0
 10
-170.4840311369326
 20
-119.4103503813257
 30
0.0
 10
-169.5432801776802
 20
-119.3626120826495
 30
0.0
 10
-167.6564909763086
 20
-119.2801255408195
 30
0.0
 10
-166.7098076097941
 20
-119.2452369606329
 30
0.0
 10
-163.860009259968
 20
-119.1609072328464
 30
0.0
 10
-161.9472155573796
 20
-119.1318176308179
 30
0.0
 10
-159.0583917217693
 20
-119.1314981057043
 30
0.0
 10
-158.0921848559047
 20
-119.1385453012876
 30
0.0
 10
-156.1529897532575
 20
-119.167348518166
 30
0.0
 10
-155.1896830122487
 20
-119.1889855623141
 30
0.0
 10
-152.3316885731732
 20
-119.2736595260695
 30
0.0
 10
-150.4626461065688
 20
-119.356685877468
 30
0.0
 10
-147.7124673071812
 20
-119.5129924820772
 30
0.0
 10
-146.8046534690213
 20
-119.5703432063622
 30
0.0
 10
-145.0072557746627
 20
-119.6937432077603
 30
0.0
 10
-144.1152997004393
 20
-119.7599890737724
 30
0.0
 10
-141.5112689919915
 20
-119.9646978598888
 30
0.0
 10
-139.857151755855
 20
-120.1098851677014
 30
0.0
 10
-137.4994369266662
 20
-120.3234921800704
 30
0.0
 10
-136.734217340125
 20
-120.394001578042
 30
0.0
 10
-135.2462911410828
 20
-120.5311181375775
 30
0.0
 10
-134.5220521957185
 20
-120.5978593330673
 30
0.0
 10
-132.425480006868
 20
-120.7885804063204
 30
0.0
 10
-131.1558141457813
 20
-120.9001939084105
 30
0.0
 10
-128.8607189993928
 20
-121.0923060925999
 30
0.0
 10
-127.8355185144981
 20
-121.1731509088117
 30
0.0
 10
-126.4859563336631
 20
-121.2770701048143
 30
0.0
 10
-126.069015871533
 20
-121.3087355312222
 30
0.0
 10
-125.3092882483321
 20
-121.3667018979461
 30
0.0
 10
-124.9651740592056
 20
-121.3930518027337
 30
0.0
 10
-124.6568874806448
 20
-121.4174629721745
 30
0.0
  0
SPLINE
  5
28F
330
278
100
AcDbEntity
  8
0
  6
Continuous
 62
     7
370
    25
100
AcDbSpline
210
0.0
220
0.0
230
1.0
 70
     8
 71
     3
 72
    12
 73
     8
 74
     0
 42
0.000000001
 43
0.00000001
 40
0.0
 40
0.0
 40
0.0
 40
0.0
 40
0.5000000000000007
 40
0.5000000000000007
 40
0.7500000000000003
 40
0.7500000000000003
 40
1.0
 40
1.0
 40
1.0
 40
1.0
 10
-310.1090662878977
 20
-116.5587839274359
 30
0.0
 10
-290.9667839351674
 20
-117.3677714684506
 30
0.0
 10
-271.8276317214574
 20
-118.1770130013869
 30
0.0
 10
-243.1306409232672
 20
-119.3916153619185
 30
0.0
 10
-233.5669558200155
 20
-119.7966125448477
 30
0.0
 10
-214.4470623520845
 20
-120.6069058734461
 30
0.0
 10
-204.8902133933634
 20
-121.0122831215313
 30
0.0
 10
-195.343112515698
 20
-121.4174629723297
 30
0.0
  0
SPLINE
  5
290
330
278
100
AcDbEntity
  8
0
  6
Continuous
 62
     7
370
    25
100
AcDbSpline
210
0.0
220
0.0
230
1.0
 70
     8
 71
     3
 72
     8
 73
     4
 74
     0
 42
0.000000001
 43
0.00000001
 40
0.0
 40
0.0
 40
0.0
 40
0.0
 40
1.0
 40
1.0
 40
1.0
 40
1.0
 10
-310.1090662878977
 20
-116.5587839274359
 30
0.0
 10
-308.3084635887512
 20
-116.3144516004692
 30
0.0
 10
-306.5094986017698
 20
-116.0513070215193
 30
0.0
 10
-304.7122889851642
 20
-115.7679986613262
 30
0.0
  0
LWPOLYLINE
  5
291
330
278
100
AcDbEntity
  8
0
  6
Continuous
 62
     7
370
    25
100
AcDbPolyline
 90
        4
 70
   128
 43
0.0
 10
-310.1090662879
 20
-116.5587839274
 10
-312.2556985462
 20
-116.5594276524
 10
-317.8976955653
 20
-116.5612038613
 10
-323.5396925665
 20
-116.5630975769
  0
LWPOLYLINE
  5
293
330
278
100
AcDbEntity
  8
0
  6
Continuous
 62
     7
370
    25
100
AcDbPolyline
 90
        4
 70
   128
 43
0.0
 10
3.5396925665
 20
-116.5630975769
 10
-3.98659796
 20
-116.5605971964
 10
-9.6283858086
 20
-116.5588619642
 10
-9.8909337121
 20
-116.5587839274
  0
SPLINE
  5
295
330
278
100
AcDbEntity
  8
0
  6
Continuous
 62
     7
370
    25
100
AcDbSpline
210
0.0
220
0.0
230
1.0
 70
     8
 71
     3
 72
     8
 73
     4
 74
     0
 42
0.000000001
 43
0.00000001
 40
0.0000000000000009
 40
0.0000000000000009
 40
0.0000000000000009
 40
0.0000000000000009
 40
0.000033513361494
 40
0.000033513361494
 40
0.000033513361494
 40
0.000033513361494
 10
-195.331965478074
 20
-121.4171717353936
 30
0.0
 10
-195.3356862976403
 20
-121.4172686264471
 30
0.0
 10
-195.3394019768382
 20
-121.4173657055579
 30
0.0
 10
-195.3431125156973
 20
-121.4174629723297
 30
0.0
  0
SPLINE
  5
296
330
278
100
AcDbEntity
  8
0
  6
Continuous
 62
     7
370
    25
100
AcDbSpline
210
0.0
220
0.0
230
1.0
 70
     8
 71
     3
 72
     8
 73
     4
 74
     0
 42
0.000000001
 43
0.00000001
 40
0.0
 40
0.0
 40
0.0
 40
0.0
 40
1.0
 40
1.0
 40
1.0
 40
1.0
 10
-196.5074036884712
 20
-121.464346019127
 30
0.0
 10
-196.2085723555486
 20
-121.4478168580316
 30
0.0
 10
-195.8158497965477
 20
-121.4318332684611
 30
0.0
 10
-195.3319654780742
 20
-121.4171717353937
 30
0.0
  0
SPLINE
  5
297
330
278
100
AcDbEntity
  8
0
  6
Continuous
 62
     7
370
    25
100
AcDbSpline
210
0.0
220
0.0
230
1.0
 70
     8
 71
     3
 72
    12
 73
     8
 74
     0
 42
0.000000001
 43
0.00000001
 40
0.0
 40
0.0
 40
0.0
 40
0.0
 40
0.25
 40
0.25
 40
0.5
 40
0.5
 40
1.0
 40
1.0
 40
1.0
 40
1.0
 10
-196.5074036884712
 20
-121.464346019127
 30
0.0
 10
-207.0901806747899
 20
-121.0662600955546
 30
0.0
 10
-217.6752400600314
 20
-120.6681289335231
 30
0.0
 10
-238.8456729744938
 20
-119.8717980102497
 30
0.0
 10
-249.4313193728107
 20
-119.4736051915596
 30
0.0
 10
-281.1886293396977
 20
-118.2789937102462
 30
0.0
 10
-302.3607000436348
 20
-117.4825426958536
 30
0.0
 10
-323.5328601073552
 20
-116.6860818408072
 30
0.0
  0
SPLINE
  5
299
330
278
100
AcDbEntity
  8
0
  6
Continuous
 62
     7
370
    25
100
AcDbSpline
210
0.0
220
0.0
230
1.0
 70
     8
 71
     3
 72
    12
 73
     8
 74
     0
 42
0.000000001
 43
0.00000001
 40
0.0
 40
0.0
 40
0.0
 40
0.0
 40
0.5
 40
0.5
 40
0.75
 40
0.75
 40
1.0
 40
1.0
 40
1.0
 40
1.0
 10
3.532860107355123
 20
-116.6860818408072
 30
0.0
 10
-17.63930012971235
 20
-117.4825427023746
 30
0.0
 10
-38.81137100412249
 20
-118.2789937231801
 30
0.0
 10
-70.56868123440013
 20
-119.4736052144008
 30
0.0
 10
-81.15432772112548
 20
-119.8717980364161
 30
0.0
 10
-102.3247607492835
 20
-120.6681289639653
 30
0.0
 10
-112.9098201984784
 20
-121.0662601283983
 30
0.0
 10
-123.4925973505362
 20
-121.4643460582107
 30
0.0
  0
SPLINE
  5
29A
330
278
100
AcDbEntity
  8
0
  6
Continuous
 62
     7
370
    25
100
AcDbSpline
210
0.0
220
0.0
230
1.0
 70
     8
 71
     3
 72
     8
 73
     4
 74
     0
 42
0.000000001
 43
0.00000001
 40
0.0
 40
0.0
 40
0.0
 40
0.0
 40
1.0
 40
1.0
 40
1.0
 40
1.0
 10
-124.6680354845765
 20
-121.4171717100985
 30
0.0
 10
-124.1841505069972
 20
-121.4318332477067
 30
0.0
 10
-123.7914340594632
 20
-121.4478170917594
 30
0.0
 10
-123.4925973505363
 20
-121.4643460582107
 30
0.0
  0
SPLINE
  5
29B
330
278
100
AcDbEntity
  8
0
  6
Continuous
 62
     7
370
    25
100
AcDbSpline
210
0.0
220
0.0
230
1.0
 70
     8
 71
     3
 72
     8
 73
     4
 74
     0
 42
0.000000001
 43
0.00000001
 40
0.0000000000000006
 40
0.0000000000000006
 40
0.0000000000000006
 40
0.0000000000000006
 40
0.0000335162616681
 40
0.0000335162616681
 40
0.0000335162616681
 40
0.0000335162616681
 10
-124.6568874806448
 20
-121.4174629721745
 30
0.0
 10
-124.6605983409585
 20
-121.4173656970006
 30
0.0
 10
-124.6643143422766
 20
-121.4172686095104
 30
0.0
 10
-124.6680354845769
 20
-121.4171717100984
 30
0.0
  0
SPLINE
  5
29D
330
278
100
AcDbEntity
  8
0
  6
Continuous
 62
     7
370
    25
100
AcDbSpline
210
0.0
220
0.0
230
1.0
 70
     8
 71
     3
 72
     8
 73
     4
 74
     0
 42
0.000000001
 43
0.00000001
 40
0.0
 40
0.0
 40
0.0
 40
0.0
 40
0.0066273204602603
 40
0.0066273204602603
 40
0.0066273204602603
 40
0.0066273204602603
 10
-124.6680354845758
 20
-121.4171717100986
 30
0.0
 10
-126.1578081137263
 20
-122.9809524163079
 30
0.0
 10
-127.6472793417454
 20
-124.5447471200869
 30
0.0
 10
-129.1359340858432
 20
-126.1085748282
 30
0.0
  0
SPLINE
  5
29E
330
278
100
AcDbEntity
  8
0
  6
Continuous
 62
     7
370
    25
100
AcDbSpline
210
0.0
220
0.0
230
1.0
 70
     8
 71
     3
 72
    58
 73
    54
 74
     0
 42
0.000000001
 43
0.00000001
 40
0.0
 40
0.0
 40
0.0
 40
0.0
 40
0.0624999999999964
 40
0.0624999999999964
 40
0.0937499999999946
 40
0.0937499999999946
 40
0.1249999999999928
 40
0.1249999999999928
 40
0.18749999999999
 40
0.18749999999999
 40
0.2499999999999871
 40
0.2499999999999871
 40
0.2656249999999869
 40
0.2656249999999869
 40
0.2812499999999867
 40
0.2812499999999867
 40
0.312499999999987
 40
0.312499999999987
 40
0.3749999999999868
 40
0.3749999999999868
 40
0.4062499999999872
 40
0.4062499999999872
 40
0.4374999999999876
 40
0.4374999999999876
 40
0.4999999999999893
 40
0.4999999999999893
 40
0.51562499999999
 40
0.51562499999999
 40
0.5312499999999907
 40
0.5312499999999907
 40
0.5624999999999911
 40
0.5624999999999911
 40
0.6249999999999918
 40
0.6249999999999918
 40
0.6562499999999927
 40
0.6562499999999927
 40
0.6874999999999936
 40
0.6874999999999936
 40
0.7499999999999943
 40
0.7499999999999943
 40
0.7812499999999953
 40
0.7812499999999953
 40
0.7968749999999959
 40
0.7968749999999959
 40
0.8124999999999964
 40
0.8124999999999964
 40
0.8749999999999978
 40
0.8749999999999978
 40
0.9062499999999984
 40
0.9062499999999984
 40
0.937499999999999
 40
0.937499999999999
 40
1.0
 40
1.0
 40
1.0
 40
1.0
 10
-129.1359340858425
 20
-126.1085748282001
 30
0.0
 10
-129.6725771743738
 20
-126.0643427299752
 30
0.0
 10
-130.3304284240181
 20
-126.0134682416484
 30
0.0
 10
-131.4923710286376
 20
-125.9207586029871
 30
0.0
 10
-131.9090195363527
 20
-125.8871616156326
 30
0.0
 10
-132.8015016255915
 20
-125.8133093300098
 30
0.0
 10
-133.2782708760696
 20
-125.7730274413777
 30
0.0
 10
-134.7937859418524
 20
-125.6407701944282
 30
0.0
 10
-135.8987829099324
 20
-125.5390961265096
 30
0.0
 10
-138.2900511599334
 20
-125.3071312496257
 30
0.0
 10
-139.5763124100113
 20
-125.1767565735066
 30
0.0
 10
-141.3014464491637
 20
-125.0029738619069
 30
0.0
 10
-141.652800629624
 20
-124.9676861328686
 30
0.0
 10
-142.3613229455114
 20
-124.8970277167447
 30
0.0
 10
-142.7191796236285
 20
-124.8616244712856
 30
0.0
 10
-143.8034096393782
 20
-124.7557066938517
 30
0.0
 10
-144.5404260515057
 20
-124.6854880699175
 30
0.0
 10
-146.7937376465365
 20
-124.4807485163417
 30
0.0
 10
-148.352040773156
 20
-124.3523951812321
 30
0.0
 10
-150.7771357909219
 20
-124.1895770391509
 30
0.0
 10
-151.6033616000894
 20
-124.1400602191781
 30
0.0
 10
-153.2581528446491
 20
-124.0545166002087
 30
0.0
 10
-154.0891663954789
 20
-124.0181975774339
 30
0.0
 10
-156.5928919683573
 20
-123.9305982617037
 30
0.0
 10
-158.2762116747424
 20
-123.8999752390853
 30
0.0
 10
-160.3983811170904
 20
-123.8995790824267
 30
0.0
 10
-160.8237208938738
 20
-123.9013928621097
 30
0.0
 10
-161.6762384180427
 20
-123.9088045348761
 30
0.0
 10
-162.1044054289685
 20
-123.9144222492237
 30
0.0
 10
-163.3831851223308
 20
-123.936888239998
 30
0.0
 10
-164.2275548989359
 20
-123.9592704302062
 30
0.0
 10
-166.7369629611411
 20
-124.0470890291453
 30
0.0
 10
-168.3784330044815
 20
-124.1332781057192
 30
0.0
 10
-170.7939721116204
 20
-124.294868159681
 30
0.0
 10
-171.5913417644949
 20
-124.3540796797982
 30
0.0
 10
-173.1701549152595
 20
-124.4808222434655
 30
0.0
 10
-173.9434905774471
 20
-124.5477585922716
 30
0.0
 10
-176.2068795121575
 20
-124.7533010850794
 30
0.0
 10
-177.645185533649
 20
-124.8968660564072
 30
0.0
 10
-179.6986815014748
 20
-125.1037018693675
 30
0.0
 10
-180.3657674893673
 20
-125.1712609316288
 30
0.0
 10
-181.3397096663084
 20
-125.2688609506301
 30
0.0
 10
-181.6605667328674
 20
-125.3008444316899
 30
0.0
 10
-182.2885540534233
 20
-125.362934429309
 30
0.0
 10
-182.5959639024328
 20
-125.3930727214353
 30
0.0
 10
-184.1005980406789
 20
-125.5390731758506
 30
0.0
 10
-185.2011862334713
 20
-125.6403639840491
 30
0.0
 10
-186.6994993738877
 20
-125.7710853067474
 30
0.0
 10
-187.1733903676296
 20
-125.8112064218764
 30
0.0
 10
-188.069004926849
 20
-125.8853593576052
 30
0.0
 10
-188.4920194012867
 20
-125.9195274032003
 30
0.0
 10
-189.6669300595655
 20
-126.01325320098
 30
0.0
 10
-190.3274097638447
 20
-126.0643415867088
 30
0.0
 10
-190.8640670231707
 20
-126.1085749105913
 30
0.0
  0
SPLINE
  5
29F
330
278
100
AcDbEntity
  8
0
  6
Continuous
 62
     7
370
    25
100
AcDbSpline
210
0.0
220
0.0
230
1.0
 70
     8
 71
     3
 72
     8
 73
     4
 74
     0
 42
0.000000001
 43
0.00000001
 40
0.0
 40
0.0
 40
0.0
 40
0.0
 40
0.0066273205339818
 40
0.0066273205339818
 40
0.0066273205339818
 40
0.0066273205339818
 10
-195.3319654780748
 20
-121.4171717353937
 30
0.0
 10
-193.8421928995265
 20
-122.9809524610856
 30
0.0
 10
-192.3527217228675
 20
-124.5447471840386
 30
0.0
 10
-190.8640670231711
 20
-126.1085749105913
 30
0.0
  0
SPLINE
  5
2A1
330
278
100
AcDbEntity
  8
0
  6
Continuous
 62
     7
370
    25
100
AcDbSpline
210
0.0
220
0.0
230
1.0
 70
     8
 71
     3
 72
     9
 73
     5
 74
     0
 42
0.000000001
 43
0.00000001
 40
0.0
 40
0.0
 40
0.0
 40
0.0
 40
0.7145265663377003
 40
0.9999999999999999
 40
0.9999999999999999
 40
0.9999999999999999
 40
0.9999999999999999
 10
-191.897117922182
 20
-126.1529987165122
 30
0.0
 10
-192.151015200044
 20
-126.1484254626355
 30
0.0
 10
-192.5063515721587
 20
-126.1420250653764
 30
0.0
 10
-192.4541342150994
 20
-126.1429705843358
 30
0.0
 10
-192.4392275468829
 20
-126.1432405048797
 30
0.0
  0
SPLINE
  5
2A2
330
278
100
AcDbEntity
  8
0
  6
Continuous
 62
     7
370
    25
100
AcDbSpline
210
0.0
220
0.0
230
1.0
 70
     8
 71
     3
 72
     8
 73
     4
 74
     0
 42
0.000000001
 43
0.00000001
 40
0.0
 40
0.0
 40
0.0
 40
0.0
 40
1.0
 40
1.0
 40
1.0
 40
1.0
 10
-190.8640670231696
 20
-126.1085749105913
 30
0.0
 10
-191.2908059862795
 20
-126.1224342760068
 30
0.0
 10
-191.6359609407836
 20
-126.1374603457159
 30
0.0
 10
-191.897117922182
 20
-126.1529987165123
 30
0.0
  0
SPLINE
  5
2A3
330
278
100
AcDbEntity
  8
0
  6
Continuous
 62
     7
370
    25
100
AcDbSpline
210
0.0
220
0.0
230
1.0
 70
     8
 71
     3
 72
     8
 73
     4
 74
     0
 42
0.000000001
 43
0.00000001
 40
0.0
 40
0.0
 40
0.0
 40
0.0
 40
1.0
 40
1.0
 40
1.0
 40
1.0
 10
-128.1024991283615
 20
-126.1530207087226
 30
0.0
 10
-128.3637018266203
 20
-126.1374694131314
 30
0.0
 10
-128.7089859098359
 20
-126.1224409516653
 30
0.0
 10
-129.1359340858426
 20
-126.1085748282
 30
0.0
  0
SPLINE
  5
2A4
330
278
100
AcDbEntity
  8
0
  6
Continuous
 62
     7
370
    25
100
AcDbSpline
210
0.0
220
0.0
230
1.0
 70
     8
 71
     3
 72
     9
 73
     5
 74
     0
 42
0.000000001
 43
0.00000001
 40
0.0
 40
0.0
 40
0.0
 40
0.0
 40
0.3522859108254283
 40
1.0
 40
1.0
 40
1.0
 40
1.0
 10
-127.5607724531172
 20
-126.1432405048796
 30
0.0
 10
-127.549492062056
 20
-126.1430386154365
 30
0.0
 10
-127.5174715051315
 20
-126.1424655313678
 30
0.0
 10
-127.8725255931397
 20
-126.1488714833616
 30
0.0
 10
-128.1024991283617
 20
-126.1530207087226
 30
0.0
  0
SPLINE
  5
2A6
330
278
100
AcDbEntity
  8
0
  6
Continuous
 62
     7
370
    25
100
AcDbSpline
210
0.0
220
0.0
230
1.0
 70
     8
 71
     3
 72
     9
 73
     5
 74
     0
 42
0.000000001
 43
0.00000001
 40
0.0
 40
0.0
 40
0.0
 40
0.0
 40
0.3068494150935387
 40
1.0
 40
1.0
 40
1.0
 40
1.0
 10
-197.1106635929799
 20
-121.4541437050029
 30
0.0
 10
-197.1301041586869
 20
-121.4538141365068
 30
0.0
 10
-197.1934595530622
 20
-121.4527400966689
 30
0.0
 10
-196.7874348239938
 20
-121.45961023666
 30
0.0
 10
-196.5059985455537
 20
-121.4643722782132
 30
0.0
  0
SPLINE
  5
2A7
330
278
100
AcDbEntity
  8
0
  6
Continuous
 62
     7
370
    25
100
AcDbSpline
210
0.0
220
0.0
230
1.0
 70
     8
 71
     3
 72
     9
 73
     5
 74
     0
 42
0.000000001
 43
0.00000001
 40
0.0
 40
0.0
 40
0.0
 40
0.0
 40
0.6258824108514429
 40
1.0
 40
1.0
 40
1.0
 40
1.0
 10
-123.493762038755
 20
-121.4643678225196
 30
0.0
 10
-123.2397845831841
 20
-121.460072994669
 30
0.0
 10
-122.8339935732956
 20
-121.4532109583246
 30
0.0
 10
-122.8742788589691
 20
-121.4538899273555
 30
0.0
 10
-122.8893502929235
 20
-121.4541439416125
 30
0.0
  0
LINE
  5
2AB
330
278
100
AcDbEntity
  8
0
  6
Continuous
 62
     7
370
    25
100
AcDbLine
 10
-192.5
 20
-126.1432405049
 30
0.0
 11
-192.5
 21
-137.0
 31
0.0
  0
LINE
  5
2AC
330
278
100
AcDbEntity
  8
0
  6
Continuous
 62
     7
370
    25
100
AcDbLine
 10
-127.5
 20
-137.0
 30
0.0
 11
-127.5
 21
-126.1432405049
 31
0.0
  0
LINE
  5
2AD
330
278
100
AcDbEntity
  8
0
  6
Continuous
 62
     7
370
    25
100
AcDbLine
 10
-260.2111597587
 20
-119.0746208422
 30
0.0
 11
-197.1893326209
 21
-121.4528029998
 31
0.0
  0
LINE
  5
2AE
330
278
100
AcDbEntity
  8
0
  6
Continuous
 62
     7
370
    25
100
AcDbLine
 10
-122.8106673791
 20
-121.4528029998
 30
0.0
 11
-59.7888402455
 21
-119.0746208422
 31
0.0
  0
LINE
  5
2AF
330
278
100
AcDbEntity
  8
0
  6
Continuous
 62
     7
370
    25
100
AcDbLine
 10
-197.1893326209
 20
-121.4528029998
 30
0.0
 11
-192.4718414008
 21
-126.1702942202
 31
0.0
  0
LINE
  5
2B0
330
278
100
AcDbEntity
  8
0
  6
Continuous
 62
     7
370
    25
100
AcDbLine
 10
-127.5281585992
 20
-126.1702942202
 30
0.0
 11
-122.8106673791
 21
-121.4528029998
 31
0.0
  0
LINE
  5
2B1
330
278
100
AcDbEntity
  8
0
  6
Continuous
 62
     7
370
    25
100
AcDbLine
 10
-15.3714443184
 20
-112.0
 30
0.0
 11
-15.2877110148
 21
-115.7679986613
 31
0.0
  0
LINE
  5
2B2
330
278
100
AcDbEntity
  8
0
  6
Continuous
 62
     7
370
    25
100
AcDbLine
 10
-304.7122889852
 20
-115.7679986613
 30
0.0
 11
-304.6285556816
 21
-112.0
 31
0.0
  0
LINE
  5
2B3
330
278
100
AcDbEntity
  8
0
  6
Continuous
 62
     7
370
    25
100
AcDbLine
 10
-304.6285556816
 20
-112.0
 30
0.0
 11
-323.7931979874
 21
-112.0
 31
0.0
  0
LINE
  5
2B4
330
278
100
AcDbEntity
  8
0
  6
Continuous
 62
     7
370
    25
100
AcDbLine
 10
-330.0154202096
 20
0.0
 30
0.0
 11
-323.5328601074
 21
-116.6860818408
 31
0.0
  0
LINE
  5
2B5
330
278
100
AcDbEntity
  8
0
  6
Continuous
 62
     7
370
    25
100
AcDbLine
 10
10.0154202096
 20
0.0
 30
0.0
 11
3.5328601074
 21
-116.6860818408
 31
0.0
  0
LINE
  5
2B6
330
278
100
AcDbEntity
  8
0
  6
Continuous
 62
     7
370
    25
100
AcDbLine
 10
3.7931979874
 20
-112.0
 30
0.0
 11
-15.3714443184
 21
-112.0
 31
0.0
  0
LINE
  5
2B7
330
278
100
AcDbEntity
  8
0
  6
Continuous
 62
     7
370
    25
100
AcDbLine
 10
-330.0154202096
 20
0.0
 30
0.0
 11
10.0154202096
 21
0.0
 31
0.0
  0
LINE
  5
2B8
330
278
100
AcDbEntity
  8
0
  6
Continuous
 62
     7
370
    25
100
AcDbLine
 10
-127.5
 20
-137.0
 30
0.0
 11
-192.5
 21
-137.0
 31
0.0
  0
LINE
  5
2B9
330
278
100
AcDbEntity
  8
0
  6
Continuous
 62
     7
370
    25
100
AcDbLine
 10
-196.5059985456
 20
-121.4643722782
 30
0.0
 11
-196.5074036885
 21
-121.4643460191
 31
0.0
  0
LINE
  5
2BA
330
278
100
AcDbEntity
  8
0
  6
Continuous
 62
     7
370
    25
100
AcDbLine
 10
-123.4925973505
 20
-121.4643460582
 30
0.0
 11
-123.4937620388
 21
-121.4643678225
 31
0.0
  0
LINE
  5
2BB
330
278
100
AcDbEntity
  8
0
  6
Continuous
 62
     7
370
    25
100
AcDbLine
 10
-123.4937620388
 20
-121.4643678225
 30
0.0
 11
-128.1024991284
 21
-126.1530207087
 31
0.0
  0
LINE
  5
2BC
330
278
100
AcDbEntity
  8
0
  6
Continuous
 62
     7
370
    25
100
AcDbLine
 10
-196.5059985456
 20
-121.4643722782
 30
0.0
 11
-191.8971179222
 21
-126.1529987165
 31
0.0
  0
VIEWPORT
  5
442
330
278
100
AcDbEntity
  8
0
100
AcDbViewport
 10
0.0
 20
0.0
 30
0.0
 40
205.6
 41
156.0
 68
     1
 69
     1
 12
344.7136829649
 22
-71.7588603704
 13
0.0
 23
0.0
 14
10.0
 24
10.0
 15
10.0
 25
10.0
 16
0.0
 26
0.0
 36
1.0
 17
0.0
 27
0.0
 37
0.0
 42
50.0
 43
0.0
 44
0.0
 45
555.4781190292
 50
0.0
 51
0.0
 72
   100
 90
   557152
  1

281
     0
 71
     1
 74
     0
110
0.0
120
0.0
130
0.0
111
1.0
121
0.0
131
0.0
112
0.0
122
1.0
132
0.0
 79
     0
146
0.0
170
     0
 61
     5
348
2F
292
     1
282
     1
141
0.0
142
0.0
 63
   256
361
443
  0
ENDBLK
  5
27B
330
278
100
AcDbEntity
  8
0
100
AcDbBlockEnd
  0
BLOCK
  5
2BF
330
2BD
100
AcDbEntity
  8
0
100
AcDbBlockBegin
  2
*Paper_Space5
 70
     0
 10
0.0
 20
0.0
 30
0.0
  3
*Paper_Space5
  1

  0
CIRCLE
  5
2C1
330
2BD
100
AcDbEntity
  8
0
  6
Continuous
 62
     7
370
    25
100
AcDbCircle
 10
47.0
 20
-160.0
 30
0.0
 40
22.49999999999997
  0
CIRCLE
  5
2C2
330
2BD
100
AcDbEntity
  8
0
  6
Continuous
 62
     7
370
    25
100
AcDbCircle
 10
47.0
 20
-160.0
 30
0.0
 40
32.50000000000003
  0
SPLINE
  5
2C3
330
2BD
100
AcDbEntity
  8
0
  6
Continuous
 62
     7
370
    25
100
AcDbSpline
210
0.0
220
0.0
230
1.0
 70
     8
 71
     3
 72
     8
 73
     4
 74
     0
 42
0.000000001
 43
0.00000001
 40
0.0000000000000004
 40
0.0000000000000004
 40
0.0000000000000004
 40
0.0000000000000004
 40
0.0000335162616695
 40
0.0000335162616695
 40
0.0000335162616695
 40
0.0000335162616695
 10
58.5461435185814
 20
-195.3431125193548
 30
0.0
 10
58.55668086104499
 20
-195.3394016590411
 30
0.0
 10
58.56721639618267
 20
-195.3356856577228
 30
0.0
 10
58.57775011553562
 20
-195.3319645154226
 30
0.0
  0
SPLINE
  5
2C4
330
2BD
100
AcDbEntity
  8
0
  6
Continuous
 62
     7
370
    25
100
AcDbSpline
210
0.0
220
0.0
230
1.0
 70
     8
 71
     3
 72
     8
 73
     4
 74
     0
 42
0.000000001
 43
0.00000001
 40
0.0
 40
0.0
 40
0.0
 40
0.0
 40
0.0066273204602602
 40
0.0066273204602602
 40
0.0066273204602602
 40
0.0066273204602602
 10
57.18132777427093
 20
-190.8640659141477
 30
0.0
 10
57.64877070635782
 20
-192.3527206582486
 30
0.0
 10
58.11372386749353
 20
-193.8421918862709
 30
0.0
 10
58.57775011553484
 20
-195.3319645154229
 30
0.0
  0
SPLINE
  5
2C5
330
2BD
100
AcDbEntity
  8
0
  6
Continuous
 62
     7
370
    25
100
AcDbSpline
210
0.0
220
0.0
230
1.0
 70
     8
 71
     3
 72
     8
 73
     4
 74
     0
 42
0.000000001
 43
0.00000001
 40
0.0
 40
0.0
 40
0.0
 40
0.0
 40
0.0066273205339822
 40
0.0066273205339822
 40
0.0066273205339822
 40
0.0066273205339822
 10
57.18132441231227
 20
-129.1359329768215
 30
0.0
 10
57.64876754026588
 20
-127.6472782771278
 30
0.0
 10
58.1137209181285
 20
-126.157807100471
 30
0.0
 10
58.5777473799714
 20
-124.6680345219241
 30
0.0
  0
SPLINE
  5
2C6
330
2BD
100
AcDbEntity
  8
0
  6
Continuous
 62
     7
370
    25
100
AcDbSpline
210
0.0
220
0.0
230
1.0
 70
     8
 71
     3
 72
     8
 73
     4
 74
     0
 42
0.000000001
 43
0.00000001
 40
0.0000000000000005
 40
0.0000000000000005
 40
0.0000000000000005
 40
0.0000000000000005
 40
0.0000335133614906
 40
0.0000335133614906
 40
0.0000335133614906
 40
0.0000335133614906
 10
58.57774737997312
 20
-124.6680345219247
 30
0.0
 10
58.56721457184627
 20
-124.6643137023588
 30
0.0
 10
58.55667994815195
 20
-124.6605980231611
 30
0.0
 10
58.54614351736592
 20
-124.6568874843024
 30
0.0
  0
SPLINE
  5
2C7
330
2BD
100
AcDbEntity
  8
0
  6
Continuous
 62
     7
370
    25
100
AcDbSpline
210
0.0
220
0.0
230
1.0
 70
     8
 71
     3
 72
    58
 73
    54
 74
     0
 42
0.000000001
 43
0.00000001
 40
0.0
 40
0.0
 40
0.0
 40
0.0
 40
0.0624999999999982
 40
0.0624999999999982
 40
0.1249999999999963
 40
0.1249999999999963
 40
0.1562499999999954
 40
0.1562499999999954
 40
0.1874999999999945
 40
0.1874999999999945
 40
0.2187499999999936
 40
0.2187499999999936
 40
0.2499999999999927
 40
0.2499999999999927
 40
0.3124999999999901
 40
0.3124999999999901
 40
0.343749999999989
 40
0.343749999999989
 40
0.3749999999999877
 40
0.3749999999999877
 40
0.4374999999999853
 40
0.4374999999999853
 40
0.453124999999985
 40
0.453124999999985
 40
0.4687499999999846
 40
0.4687499999999846
 40
0.4999999999999837
 40
0.4999999999999837
 40
0.5624999999999831
 40
0.5624999999999831
 40
0.5937499999999827
 40
0.5937499999999827
 40
0.609374999999983
 40
0.609374999999983
 40
0.6249999999999833
 40
0.6249999999999833
 40
0.6874999999999856
 40
0.6874999999999856
 40
0.7187499999999871
 40
0.7187499999999871
 40
0.7499999999999887
 40
0.7499999999999887
 40
0.7812499999999902
 40
0.7812499999999902
 40
0.8124999999999917
 40
0.8124999999999917
 40
0.8437499999999932
 40
0.8437499999999932
 40
0.8749999999999948
 40
0.8749999999999948
 40
0.9374999999999972
 40
0.9374999999999972
 40
1.0
 40
1.0
 40
1.0
 40
1.0
 10
58.54614351736537
 20
-124.6568874843022
 30
0.0
 10
60.39026209370169
 20
-125.2726739282841
 30
0.0
 10
62.16067705650147
 20
-126.0259514317563
 30
0.0
 10
65.55868509455115
 20
-127.7981879290692
 30
0.0
 10
67.18623965530135
 20
-128.8172186358677
 30
0.0
 10
69.5154920026354
 20
-130.5537691169577
 30
0.0
 10
70.2711026642961
 20
-131.1663768732735
 30
0.0
 10
71.72379223551751
 20
-132.4455220334241
 30
0.0
 10
72.42334332746093
 20
-133.1138852045845
 30
0.0
 10
73.76863734743078
 20
-134.5084868480381
 30
0.0
 10
74.41366276664024
 20
-135.234393629652
 30
0.0
 10
75.63346986093494
 20
-136.723678610229
 30
0.0
 10
76.21061620796787
 20
-137.4894008131498
 30
0.0
 10
77.8470729304648
 20
-139.8480010926471
 30
0.0
 10
78.81210765881485
 20
-141.5018532305461
 30
0.0
 10
80.07465130615815
 20
-144.1037736323694
 30
0.0
 10
80.46554506013209
 20
-144.9945034226917
 30
0.0
 10
81.1737833881499
 20
-146.7896258690675
 30
0.0
 10
81.49249533998638
 20
-147.6964485658195
 30
0.0
 10
82.34500903131736
 20
-150.4441653158494
 30
0.0
 10
82.77583581280307
 20
-152.312147204196
 30
0.0
 10
83.13921513645096
 20
-154.6934989195085
 30
0.0
 10
83.20309983188989
 20
-155.1720958734491
 30
0.0
 10
83.31295856780413
 20
-156.1340339945138
 30
0.0
 10
83.35899739396346
 20
-156.6184319113214
 30
0.0
 10
83.4690909532747
 20
-158.0691099327744
 30
0.0
 10
83.5053613853515
 20
-159.0331866388382
 30
0.0
 10
83.50579649032413
 20
-161.9165328382003
 30
0.0
 10
83.36224146273588
 20
-163.8269693502187
 30
0.0
 10
82.93175822001622
 20
-166.6750155482684
 30
0.0
 10
82.75249247179329
 20
-167.6214374158769
 30
0.0
 10
82.42853216731932
 20
-169.0365766448051
 30
0.0
 10
82.31111809918603
 20
-169.508443043548
 30
0.0
 10
82.05961627066388
 20
-170.4434786410881
 30
0.0
 10
81.92545233724083
 20
-170.9072250541711
 30
0.0
 10
81.2131428435931
 20
-173.2073947938543
 30
0.0
 10
80.51174549277151
 20
-174.9886517729435
 30
0.0
 10
79.2624799106853
 20
-177.5732846827262
 30
0.0
 10
78.81294068297268
 20
-178.4201779668214
 30
0.0
 10
77.84513180374108
 20
-180.0837700489894
 30
0.0
 10
77.32491259805325
 20
-180.9031442335533
 30
0.0
 10
76.22281264154768
 20
-182.4944372139877
 30
0.0
 10
75.64139718969359
 20
-183.2662392136198
 30
0.0
 10
74.4170754377953
 20
-184.7617870410283
 30
0.0
 10
73.7730960269371
 20
-185.486661013889
 30
0.0
 10
72.42722038141824
 20
-186.8823158516542
 30
0.0
 10
71.72766639224703
 20
-187.5508644758131
 30
0.0
 10
70.27564804370078
 20
-188.8298136963222
 30
0.0
 10
69.5217341912635
 20
-189.4412698798303
 30
0.0
 10
67.18963233634406
 20
-191.1808326217773
 30
0.0
 10
65.56048094400896
 20
-192.2007684655075
 30
0.0
 10
62.16062653459286
 20
-193.9741613813221
 30
0.0
 10
60.38984382083956
 20
-194.7274656764319
 30
0.0
 10
58.54614351858084
 20
-195.343112519355
 30
0.0
  0
SPLINE
  5
2C8
330
2BD
100
AcDbEntity
  8
0
  6
Continuous
 62
     7
370
    25
100
AcDbSpline
210
0.0
220
0.0
230
1.0
 70
     8
 71
     3
 72
     8
 73
     4
 74
     0
 42
0.000000001
 43
0.00000001
 40
0.0000000000000009
 40
0.0000000000000009
 40
0.0000000000000009
 40
0.0000000000000009
 40
0.000033513361494
 40
0.000033513361494
 40
0.000033513361494
 40
0.000033513361494
 10
35.42225262002302
 20
-195.331965478074
 30
0.0
 10
35.43278542815098
 20
-195.3356862976403
 30
0.0
 10
35.44332005184641
 20
-195.3394019768382
 30
0.0
 10
35.4538564826335
 20
-195.3431125156973
 30
0.0
  0
SPLINE
  5
2C9
330
2BD
100
AcDbEntity
  8
0
  6
Continuous
 62
     7
370
    25
100
AcDbSpline
210
0.0
220
0.0
230
1.0
 70
     8
 71
     3
 72
    54
 73
    50
 74
     0
 42
0.000000001
 43
0.00000001
 40
0.0
 40
0.0
 40
0.0
 40
0.0
 40
0.0624999999999994
 40
0.0624999999999994
 40
0.1249999999999989
 40
0.1249999999999989
 40
0.1406249999999989
 40
0.1406249999999989
 40
0.1562499999999989
 40
0.1562499999999989
 40
0.1874999999999994
 40
0.1874999999999994
 40
0.2500000000000007
 40
0.2500000000000007
 40
0.2812500000000013
 40
0.2812500000000013
 40
0.3125000000000018
 40
0.3125000000000018
 40
0.375000000000003
 40
0.375000000000003
 40
0.4062500000000036
 40
0.4062500000000036
 40
0.4375000000000042
 40
0.4375000000000042
 40
0.5000000000000046
 40
0.5000000000000046
 40
0.5312500000000042
 40
0.5312500000000042
 40
0.562500000000004
 40
0.562500000000004
 40
0.6250000000000034
 40
0.6250000000000034
 40
0.6562500000000031
 40
0.6562500000000031
 40
0.6875000000000029
 40
0.6875000000000029
 40
0.7500000000000022
 40
0.7500000000000022
 40
0.781250000000002
 40
0.781250000000002
 40
0.8125000000000017
 40
0.8125000000000017
 40
0.8750000000000011
 40
0.8750000000000011
 40
0.9375000000000006
 40
0.9375000000000006
 40
0.9687500000000003
 40
0.9687500000000003
 40
1.0
 40
1.0
 40
1.0
 40
1.0
 10
35.45385648263366
 20
-195.3431125156974
 30
0.0
 10
33.60766260267339
 20
-194.7266330881646
 30
0.0
 10
31.83533719175252
 20
-193.9723550801993
 30
0.0
 10
28.43382922156756
 20
-192.1975213119829
 30
0.0
 10
26.80468374094297
 20
-191.1768966021452
 30
0.0
 10
24.86188102987691
 20
-189.7273532394932
 30
0.0
 10
24.47753302141153
 20
-189.4282097216422
 30
0.0
 10
23.72518156984421
 20
-188.8177388274818
 30
0.0
 10
23.35640750240936
 20
-188.5058143010761
 30
0.0
 10
22.27190754679303
 20
-187.5503220346189
 30
0.0
 10
21.57801193650194
 20
-186.8870304842643
 30
0.0
 10
19.58217674517621
 20
-184.8195022614994
 30
0.0
 10
18.36569266381904
 20
-183.3380122705701
 30
0.0
 10
16.71229950329922
 20
-180.9597776597928
 30
0.0
 10
16.18876980672462
 20
-180.1387471031832
 30
0.0
 10
15.21555627925292
 20
-178.4722478648644
 30
0.0
 10
14.76354799256674
 20
-177.623817773646
 30
0.0
 10
13.50734861135799
 20
-175.0344205275447
 30
0.0
 10
12.80207710652509
 20
-173.2497283353443
 30
0.0
 10
11.94247848456748
 20
-170.4840311369326
 30
0.0
 10
11.68836444924454
 20
-169.5432801776802
 30
0.0
 10
11.25468173982835
 20
-167.6564909763086
 30
0.0
 10
11.07434303742472
 20
-166.7098076097941
 30
0.0
 10
10.64123561735392
 20
-163.860009259968
 30
0.0
 10
10.49557496771042
 20
-161.9472155573796
 30
0.0
 10
10.49396120568846
 20
-159.0583917217693
 30
0.0
 10
10.52950608349212
 20
-158.0921848559047
 30
0.0
 10
10.67555421781863
 20
-156.1529897532575
 30
0.0
 10
10.78545628909233
 20
-155.1896830122487
 30
0.0
 10
11.22030610728686
 20
-152.3316885731732
 30
0.0
 10
11.6501369790542
 20
-150.4626461065688
 30
0.0
 10
12.50209396647589
 20
-147.7124673071812
 30
0.0
 10
12.82068283345583
 20
-146.8046534690213
 30
0.0
 10
13.52901416886526
 20
-145.0072557746627
 30
0.0
 10
13.92009510502912
 20
-144.1152997004393
 30
0.0
 10
15.18260369018964
 20
-141.5112689919915
 30
0.0
 10
16.14729607109672
 20
-139.857151755855
 30
0.0
 10
17.7820515571
 20
-137.4994369266662
 30
0.0
 10
18.35842036314539
 20
-136.734217340125
 30
0.0
 10
19.57612119051094
 20
-135.2462911410828
 30
0.0
 10
20.21890723776398
 20
-134.5220521957185
 30
0.0
 10
22.23948998973152
 20
-132.425480006868
 30
0.0
 10
23.68223604845837
 20
-131.1558141457813
 30
0.0
 10
26.75033858785669
 20
-128.8607189993928
 30
0.0
 10
28.37584275833033
 20
-127.8355185144981
 30
0.0
 10
30.95442770357026
 20
-126.4859563336631
 30
0.0
 10
31.83547808766912
 20
-126.069015871533
 30
0.0
 10
33.62230026845153
 20
-125.3092882483321
 30
0.0
 10
34.53061929664625
 20
-124.9651740592056
 30
0.0
 10
35.45385648141996
 20
-124.6568874806448
 30
0.0
  0
SPLINE
  5
2CA
330
2BD
100
AcDbEntity
  8
0
  6
Continuous
 62
     7
370
    25
100
AcDbSpline
210
0.0
220
0.0
230
1.0
 70
     8
 71
     3
 72
     8
 73
     4
 74
     0
 42
0.000000001
 43
0.00000001
 40
0.0000000000000006
 40
0.0000000000000006
 40
0.0000000000000006
 40
0.0000000000000006
 40
0.0000335162616681
 40
0.0000335162616681
 40
0.0000335162616681
 40
0.0000335162616681
 10
35.45385648141996
 20
-124.6568874806448
 30
0.0
 10
35.44331913895643
 20
-124.6605983409585
 30
0.0
 10
35.43278360381863
 20
-124.6643143422766
 30
0.0
 10
35.42224988446569
 20
-124.6680354845769
 30
0.0
  0
SPLINE
  5
2CB
330
2BD
100
AcDbEntity
  8
0
  6
Continuous
 62
     7
370
    25
100
AcDbSpline
210
0.0
220
0.0
230
1.0
 70
     8
 71
     3
 72
     8
 73
     4
 74
     0
 42
0.000000001
 43
0.00000001
 40
0.0
 40
0.0
 40
0.0
 40
0.0
 40
0.0066273204602603
 40
0.0066273204602603
 40
0.0066273204602603
 40
0.0066273204602603
 10
35.42224988446907
 20
-124.6680354845758
 30
0.0
 10
35.88627613251472
 20
-126.1578081137263
 30
0.0
 10
36.35122929365997
 20
-127.6472793417454
 30
0.0
 10
36.81867222575647
 20
-129.1359340858432
 30
0.0
  0
SPLINE
  5
2CC
330
2BD
100
AcDbEntity
  8
0
  6
Continuous
 62
     7
370
    25
100
AcDbSpline
210
0.0
220
0.0
230
1.0
 70
     8
 71
     3
 72
     8
 73
     4
 74
     0
 42
0.000000001
 43
0.00000001
 40
0.0
 40
0.0
 40
0.0
 40
0.0
 40
0.0066273205339818
 40
0.0066273205339818
 40
0.0066273205339818
 40
0.0066273205339818
 10
35.42225262002552
 20
-195.3319654780748
 30
0.0
 10
35.88627908186387
 20
-193.8421928995265
 30
0.0
 10
36.35123245971988
 20
-192.3527217228675
 30
0.0
 10
36.81867558766494
 20
-190.8640670231711
 30
0.0
  0
SPLINE
  5
2CD
330
2BD
100
AcDbEntity
  8
0
  6
Continuous
 62
     7
370
    25
100
AcDbSpline
210
0.0
220
0.0
230
1.0
 70
     8
 71
     3
 72
    14
 73
    10
 74
     0
 42
0.000000001
 43
0.00000001
 40
0.0
 40
0.0
 40
0.0
 40
0.0
 40
0.25
 40
0.25
 40
0.5
 40
0.5
 40
0.75
 40
0.75
 40
1.0
 40
1.0
 40
1.0
 40
1.0
 10
39.88963139766294
 20
-123.493762038755
 30
0.0
 10
41.06186453784238
 20
-123.2664722483134
 30
0.0
 10
42.24160426397966
 20
-123.0958637575509
 30
0.0
 10
44.61605677108737
 20
-122.8677089401315
 30
0.0
 10
45.80948177114941
 20
-122.8106316097729
 30
0.0
 10
48.19259079904293
 20
-122.8107031680859
 30
0.0
 10
49.38695154294176
 20
-122.8679661274878
 30
0.0
 10
51.75991625004706
 20
-123.0960589412527
 30
0.0
 10
52.9392800934067
 20
-123.2666514719364
 30
0.0
 10
54.11149866326864
 20
-123.4940014544469
 30
0.0
  0
SPLINE
  5
2D0
330
2BD
100
AcDbEntity
  8
0
  6
Continuous
 62
     7
370
    25
100
AcDbSpline
210
0.0
220
0.0
230
1.0
 70
     8
 71
     3
 72
    14
 73
    10
 74
     0
 42
0.000000001
 43
0.00000001
 40
0.0
 40
0.0
 40
0.0
 40
0.0
 40
0.25
 40
0.25
 40
0.5
 40
0.5
 40
0.75
 40
0.75
 40
1.0
 40
1.0
 40
1.0
 40
1.0
 10
54.11036860234497
 20
-196.5062379612435
 30
0.0
 10
52.93813546216514
 20
-196.7335277516856
 30
0.0
 10
51.75839573602742
 20
-196.9041362424482
 30
0.0
 10
49.38394322891876
 20
-197.1322910598682
 30
0.0
 10
48.19051822885634
 20
-197.1893683902271
 30
0.0
 10
45.80740920096188
 20
-197.1892968319143
 30
0.0
 10
44.61304845706254
 20
-197.1320338725123
 30
0.0
 10
42.24008374995631
 20
-196.9039410587478
 30
0.0
 10
41.06071990659632
 20
-196.7333485280645
 30
0.0
 10
39.88850133673388
 20
-196.5059985455536
 30
0.0
  0
SPLINE
  5
2D2
330
2BD
100
AcDbEntity
  8
0
  6
Continuous
 62
     7
370
    25
100
AcDbSpline
210
0.0
220
0.0
230
1.0
 70
     8
 71
     3
 72
     8
 73
     4
 74
     0
 42
0.000000001
 43
0.00000001
 40
0.0
 40
0.0
 40
0.0
 40
0.0
 40
0.0066333156089189
 40
0.0066333156089189
 40
0.0066333156089189
 40
0.0066333156089189
 10
53.22891950051112
 20
-191.8975008716381
 30
0.0
 10
53.52307096432723
 20
-193.4336856572343
 30
0.0
 10
53.81680721381327
 20
-194.9699464344388
 30
0.0
 10
54.11036860234125
 20
-196.5062379612442
 30
0.0
  0
SPLINE
  5
2D3
330
2BD
100
AcDbEntity
  8
0
  6
Continuous
 62
     7
370
    25
100
AcDbSpline
210
0.0
220
0.0
230
1.0
 70
     8
 71
     3
 72
     8
 73
     4
 74
     0
 42
0.000000001
 43
0.00000001
 40
0.0
 40
0.0
 40
0.0
 40
0.0
 40
1.0
 40
1.0
 40
1.0
 40
1.0
 10
35.42224988446696
 20
-124.6680354845765
 30
0.0
 10
36.88720654456306
 20
-124.1841505069972
 30
0.0
 10
38.38154116397396
 20
-123.7914340594632
 30
0.0
 10
39.8951060315374
 20
-123.4925973505363
 30
0.0
  0
SPLINE
  5
2D5
330
2BD
100
AcDbEntity
  8
0
  6
Continuous
 62
     7
370
    25
100
AcDbSpline
210
0.0
220
0.0
230
1.0
 70
     8
 71
     3
 72
     8
 73
     4
 74
     0
 42
0.000000001
 43
0.00000001
 40
0.0
 40
0.0
 40
0.0
 40
0.0
 40
1.0
 40
1.0
 40
1.0
 40
1.0
 10
58.57775011553568
 20
-195.3319645154226
 30
0.0
 10
57.11279345543835
 20
-195.8158494930027
 30
0.0
 10
55.61845883602678
 20
-196.2085659405372
 30
0.0
 10
54.10489396846179
 20
-196.5074026494639
 30
0.0
  0
SPLINE
  5
2D8
330
2BD
100
AcDbEntity
  8
0
  6
Continuous
 62
     7
370
    25
100
AcDbSpline
210
0.0
220
0.0
230
1.0
 70
     8
 71
     3
 72
     8
 73
     4
 74
     0
 42
0.000000001
 43
0.00000001
 40
0.0
 40
0.0
 40
0.0
 40
0.0
 40
1.0
 40
1.0
 40
1.0
 40
1.0
 10
54.10489417139574
 20
-123.4925963115291
 30
0.0
 10
55.61845961558959
 20
-123.7914276444517
 30
0.0
 10
57.11279196502051
 20
-124.1841502034521
 30
0.0
 10
58.57774737997273
 20
-124.6680345219245
 30
0.0
  0
SPLINE
  5
2DA
330
2BD
100
AcDbEntity
  8
0
  6
Continuous
 62
     7
370
    25
100
AcDbSpline
210
0.0
220
0.0
230
1.0
 70
     8
 71
     3
 72
     8
 73
     4
 74
     0
 42
0.000000001
 43
0.00000001
 40
0.0
 40
0.0
 40
0.0
 40
0.0
 40
1.0
 40
1.0
 40
1.0
 40
1.0
 10
39.89510582860506
 20
-196.5074036884712
 30
0.0
 10
38.3815403844095
 20
-196.2085723555486
 30
0.0
 10
36.88720803497747
 20
-195.8158497965477
 30
0.0
 10
35.42225262002391
 20
-195.3319654780742
 30
0.0
  0
SPLINE
  5
2DB
330
2BD
100
AcDbEntity
  8
0
  6
Continuous
 62
     7
370
    25
100
AcDbSpline
210
0.0
220
0.0
230
1.0
 70
     8
 71
     3
 72
    22
 73
    18
 74
     0
 42
0.000000001
 43
0.00000001
 40
0.0
 40
0.0
 40
0.0
 40
0.0
 40
0.1250000000000002
 40
0.1250000000000002
 40
0.2500000000000003
 40
0.2500000000000003
 40
0.3750000000000005
 40
0.3750000000000005
 40
0.5000000000000007
 40
0.5000000000000007
 40
0.6250000000000004
 40
0.6250000000000004
 40
0.7500000000000003
 40
0.7500000000000003
 40
0.8750000000000001
 40
0.8750000000000001
 40
1.0
 40
1.0
 40
1.0
 40
1.0
 10
-7.429846638572157
 20
-15.28771101484128
 30
0.0
 10
-7.430998896930385
 20
-27.34712764773939
 30
0.0
 10
-7.432319497804762
 20
-39.40650751761048
 30
0.0
 10
-7.435199372458623
 20
-63.5252151354129
 30
0.0
 10
-7.43676302630475
 20
-75.58454192681515
 30
0.0
 10
-7.439730935030475
 20
-99.70323031953382
 30
0.0
 10
-7.44112362768512
 20
-111.7625944458356
 30
0.0
 10
-7.44310878793536
 20
-135.8814974534336
 30
0.0
 10
-7.443683465625295
 20
-147.9409697424829
 30
0.0
 10
-7.443683442566684
 20
-172.0597834539195
 30
0.0
 10
-7.443108746354843
 20
-184.1191480909256
 30
0.0
 10
-7.441123582352271
 20
-208.2378159657032
 30
0.0
 10
-7.439730892982666
 20
-220.2971241202596
 30
0.0
 10
-7.436762993664859
 20
-244.4157105831348
 30
0.0
 10
-7.435199347528398
 20
-256.4749860441321
 30
0.0
 10
-7.432319486814221
 20
-280.5935921375458
 30
0.0
 10
-7.430998892206498
 20
-292.6529217933186
 30
0.0
 10
-7.429846638572213
 20
-304.7122889851696
 30
0.0
  0
SPLINE
  5
2DC
330
2BD
100
AcDbEntity
  8
0
  6
Continuous
 62
     7
370
    25
100
AcDbSpline
210
0.0
220
0.0
230
1.0
 70
    24
 71
     3
 72
     8
 73
     4
 74
     0
 42
0.000000001
 43
0.00000001
 40
0.0
 40
0.0
 40
0.0
 40
0.0
 40
1.0
 40
1.0
 40
1.0
 40
1.0
 10
-2.033069335832749
 20
-9.890933712101951
 30
0.0
 10
-3.833672034981139
 20
-11.69153641125034
 30
0.0
 10
-5.632637021964704
 20
-13.49050139823379
 30
0.0
 10
-7.429846638572157
 20
-15.28771101484128
 30
0.0
  0
SPLINE
  5
2DD
330
2BD
100
AcDbEntity
  8
0
  6
Continuous
 62
     7
370
    25
100
AcDbSpline
210
0.0
220
0.0
230
1.0
 70
     8
 71
     3
 72
    12
 73
     8
 74
     0
 42
0.000000001
 43
0.00000001
 40
0.0
 40
0.0
 40
0.0
 40
0.0
 40
0.5
 40
0.5
 40
0.75
 40
0.75
 40
1.0
 40
1.0
 40
1.0
 40
1.0
 10
-2.033069335832749
 20
-9.89093371210198
 30
0.0
 10
4.170058258383347
 20
-29.03321606308468
 30
0.0
 10
10.3828271748822
 20
-48.17236827631633
 30
0.0
 10
19.73793115886674
 20
-76.86935906890022
 30
0.0
 10
22.86235484589339
 20
-86.43304417809581
 30
0.0
 10
29.13386945120994
 20
-105.5529376496459
 30
0.0
 10
32.27902159884233
 20
-115.1097866084239
 30
0.0
 10
35.45385648141996
 20
-124.6568874806447
 30
0.0
  0
SPLINE
  5
2DE
330
2BD
100
AcDbEntity
  8
0
  6
Continuous
 62
     7
370
    25
100
AcDbSpline
210
0.0
220
0.0
230
1.0
 70
     8
 71
     3
 72
    12
 73
     8
 74
     0
 42
0.000000001
 43
0.00000001
 40
0.0
 40
0.0
 40
0.0
 40
0.0
 40
0.5000000000000007
 40
0.5000000000000007
 40
0.7500000000000003
 40
0.7500000000000003
 40
1.0
 40
1.0
 40
1.0
 40
1.0
 10
-2.03306933583336
 20
-310.1090662878977
 30
0.0
 10
4.170058258949005
 20
-290.9667839351674
 30
0.0
 10
10.38282717560196
 20
-271.8276317214574
 30
0.0
 10
19.73793116142308
 20
-243.1306409232672
 30
0.0
 10
22.86235484651317
 20
-233.5669558200155
 30
0.0
 10
29.13386945064311
 20
-214.4470623520845
 30
0.0
 10
32.27902159823914
 20
-204.8902133933634
 30
0.0
 10
35.45385648263549
 20
-195.343112515698
 30
0.0
  0
SPLINE
  5
2DF
330
2BD
100
AcDbEntity
  8
0
  6
Continuous
 62
     7
370
    25
100
AcDbSpline
210
0.0
220
0.0
230
1.0
 70
    24
 71
     3
 72
     8
 73
     4
 74
     0
 42
0.000000001
 43
0.00000001
 40
0.0
 40
0.0
 40
0.0
 40
0.0
 40
1.0
 40
1.0
 40
1.0
 40
1.0
 10
-2.03306933583336
 20
-310.1090662878977
 30
0.0
 10
-3.833672034979918
 20
-308.3084635887512
 30
0.0
 10
-5.632637021961262
 20
-306.5094986017698
 30
0.0
 10
-7.429846638566884
 20
-304.7122889851642
 30
0.0
  0
SPLINE
  5
2E0
330
2BD
100
AcDbEntity
  8
0
  6
Continuous
 62
     7
370
    25
100
AcDbSpline
210
0.0
220
0.0
230
1.0
 70
    24
 71
     3
 72
     8
 73
     4
 74
     0
 42
0.000000001
 43
0.00000001
 40
0.0
 40
0.0
 40
0.0
 40
0.0
 40
1.0
 40
1.0
 40
1.0
 40
1.0
 10
96.03306933585554
 20
-9.890933712124545
 30
0.0
 10
98.02379285216506
 20
-11.88165722843407
 30
0.0
 10
100.0128115292202
 20
-13.87067590548915
 30
0.0
 10
102.0000000000001
 20
-15.85786437626907
 30
0.0
  0
SPLINE
  5
2E1
330
2BD
100
AcDbEntity
  8
0
  6
Continuous
 62
     7
370
    25
100
AcDbSpline
210
0.0
220
0.0
230
1.0
 70
    24
 71
     3
 72
    22
 73
    18
 74
     0
 42
0.000000001
 43
0.00000001
 40
0.0
 40
0.0
 40
0.0
 40
0.0
 40
0.125
 40
0.125
 40
0.25
 40
0.25
 40
0.375
 40
0.375
 40
0.5
 40
0.5
 40
0.625
 40
0.625
 40
0.75
 40
0.75
 40
0.875
 40
0.875
 40
1.0
 40
1.0
 40
1.0
 40
1.0
 10
102.0
 20
-15.85786437626902
 30
0.0
 10
102.0
 20
-27.86971285886602
 30
0.0
 10
102.0
 20
-39.88152804656436
 30
0.0
 10
102.0
 20
-63.90511365798162
 30
0.0
 10
102.0000000000001
 20
-75.91687532548944
 30
0.0
 10
102.0000000000001
 20
-99.94044693038273
 30
0.0
 10
102.0
 20
-111.9522672857513
 30
0.0
 10
102.0
 20
-135.9760618005911
 30
0.0
 10
102.0
 20
-147.9880327196715
 30
0.0
 10
102.0
 20
-172.0120235380003
 30
0.0
 10
102.0
 20
-184.0239747812526
 30
0.0
 10
102.0
 20
-208.0477748435382
 30
0.0
 10
101.9999999999999
 20
-220.0595844515264
 30
0.0
 10
101.9999999999999
 20
-244.0831510621653
 30
0.0
 10
102.0
 20
-256.0949112381668
 30
0.0
 10
102.0
 20
-280.1184858208646
 30
0.0
 10
101.9999999999999
 20
-292.1302946802637
 30
0.0
 10
101.9999999999999
 20
-304.142135623731
 30
0.0
  0
SPLINE
  5
2E2
330
2BD
100
AcDbEntity
  8
0
  6
Continuous
 62
     7
370
    25
100
AcDbSpline
210
0.0
220
0.0
230
1.0
 70
    24
 71
     3
 72
     8
 73
     4
 74
     0
 42
0.000000001
 43
0.00000001
 40
0.0
 40
0.0
 40
0.0
 40
0.0
 40
1.0
 40
1.0
 40
1.0
 40
1.0
 10
96.0330693358331
 20
-310.1090662878978
 30
0.0
 10
98.02379285215012
 20
-308.1183427715808
 30
0.0
 10
100.0128115292127
 20
-306.1293240945181
 30
0.0
 10
102.0
 20
-304.1421356237307
 30
0.0
  0
SPLINE
  5
2E3
330
2BD
100
AcDbEntity
  8
0
  6
Continuous
 62
     7
370
    25
100
AcDbSpline
210
0.0
220
0.0
230
1.0
 70
     8
 71
     3
 72
    12
 73
     8
 74
     0
 42
0.000000001
 43
0.00000001
 40
0.0
 40
0.0
 40
0.0
 40
0.0
 40
0.25
 40
0.25
 40
0.5
 40
0.5
 40
1.0
 40
1.0
 40
1.0
 40
1.0
 10
58.54614351858323
 20
-195.3431125193542
 30
0.0
 10
61.72095271025929
 20
-204.8901361360299
 30
0.0
 10
64.86610756999822
 20
-214.4469924282054
 30
0.0
 10
71.13763679422541
 20
-233.5669302022074
 30
0.0
 10
74.26206179523636
 20
-243.1306193457578
 30
0.0
 10
83.61716882369625
 20
-271.8276193930154
 30
0.0
 10
89.82993974244202
 20
-290.9667777676428
 30
0.0
 10
96.03306933583316
 20
-310.1090662878978
 30
0.0
  0
SPLINE
  5
2E4
330
2BD
100
AcDbEntity
  8
0
  6
Continuous
 62
     7
370
    25
100
AcDbSpline
210
0.0
220
0.0
230
1.0
 70
     8
 71
     3
 72
    12
 73
     8
 74
     0
 42
0.000000001
 43
0.00000001
 40
0.0
 40
0.0
 40
0.0
 40
0.0
 40
0.5
 40
0.5
 40
0.75
 40
0.75
 40
1.0
 40
1.0
 40
1.0
 40
1.0
 10
96.03306933582878
 20
-9.890933712115968
 30
0.0
 10
89.82994385187298
 20
-29.03320955102912
 30
0.0
 10
83.61717707938399
 20
-48.17235516423366
 30
0.0
 10
74.26207669590262
 20
-76.869335005235
 30
0.0
 10
71.1376533584498
 20
-86.43301913632554
 30
0.0
 10
64.86612924329249
 20
-105.552941658983
 30
0.0
 10
61.72096595366067
 20
-115.1098240395322
 30
0.0
 10
58.54614351736704
 20
-124.6568874843027
 30
0.0
  0
LWPOLYLINE
  5
2E5
330
2BD
100
AcDbEntity
  8
0
  6
Continuous
 62
     7
370
    25
100
AcDbPolyline
 90
        5
 70
   128
 43
0.0
 10
78.7429482285
 20
3.5328601074
 10
62.8714741571
 20
3.5329000028
 10
47.0000000711
 20
3.5329135039
 10
31.1285259213
 20
3.5329000028
 10
15.2570517715
 20
3.5328601074
  0
SPLINE
  5
2E6
330
2BD
100
AcDbEntity
  8
0
  6
Continuous
 62
     7
370
    25
100
AcDbSpline
210
0.0
220
0.0
230
1.0
 70
     8
 71
     3
 72
    12
 73
     8
 74
     0
 42
0.000000001
 43
0.00000001
 40
0.0
 40
0.0
 40
0.0
 40
0.0
 40
0.4999999999999998
 40
0.4999999999999998
 40
0.7499999999999999
 40
0.7499999999999999
 40
1.0
 40
1.0
 40
1.0
 40
1.0
 10
78.74294822847757
 20
3.532860107355123
 30
0.0
 10
74.64306694471135
 20
-17.63929988457624
 30
0.0
 10
70.54272173535159
 20
-38.81137051384537
 30
0.0
 10
64.38808358682286
 20
-70.56868037645194
 30
0.0
 10
62.33589563640746
 20
-81.15432653646802
 30
0.0
 10
58.22708422266948
 20
-102.3247601000502
 30
0.0
 10
56.1718635965503
 20
-112.9098213171907
 30
0.0
 10
54.10489417139564
 20
-123.492596311529
 30
0.0
  0
SPLINE
  5
2E7
330
2BD
100
AcDbEntity
  8
0
  6
Continuous
 62
     7
370
    25
100
AcDbSpline
210
0.0
220
0.0
230
1.0
 70
     8
 71
     3
 72
    12
 73
     8
 74
     0
 42
0.000000001
 43
0.00000001
 40
0.0
 40
0.0
 40
0.0
 40
0.0
 40
0.5
 40
0.5
 40
0.75
 40
0.75
 40
1.0
 40
1.0
 40
1.0
 40
1.0
 10
15.25705177152248
 20
3.532860107355123
 30
0.0
 10
19.35693310275788
 20
-17.63930012971235
 30
0.0
 10
23.45727835958689
 20
-38.81137100412249
 30
0.0
 10
29.61191657948709
 20
-70.56868123440013
 30
0.0
 10
31.66410459336855
 20
-81.15432772112548
 30
0.0
 10
35.77291590348436
 20
-102.3247607492835
 30
0.0
 10
37.82813618394776
 20
-112.9098201984784
 30
0.0
 10
39.89510603153845
 20
-123.4925973505362
 30
0.0
  0
SPLINE
  5
2E8
330
2BD
100
AcDbEntity
  8
0
  6
Continuous
 62
     7
370
    25
100
AcDbSpline
210
0.0
220
0.0
230
1.0
 70
     8
 71
     3
 72
    12
 73
     8
 74
     0
 42
0.000000001
 43
0.00000001
 40
0.0
 40
0.0
 40
0.0
 40
0.0
 40
0.5
 40
0.5
 40
0.75
 40
0.75
 40
1.0
 40
1.0
 40
1.0
 40
1.0
 10
78.74294822847749
 20
-323.532860107355
 30
0.0
 10
74.64306691116856
 20
-302.360699942206
 30
0.0
 10
70.54272166826509
 20
-281.1886291397142
 30
0.0
 10
64.38808346930375
 20
-249.4313190173048
 30
0.0
 10
62.33589550206259
 20
-238.8456727706921
 30
0.0
 10
58.22708405446713
 20
-217.6752390339497
 30
0.0
 10
56.17186341148162
 20
-207.0901777301439
 30
0.0
 10
54.10489396846202
 20
-196.5074026494639
 30
0.0
  0
LWPOLYLINE
  5
2E9
330
2BD
100
AcDbEntity
  8
0
  6
Continuous
 62
     7
370
    25
100
AcDbPolyline
 90
        5
 70
   128
 43
0.0
 10
15.2570517715
 20
-323.5328601074
 10
31.1285258429
 20
-323.5329000028
 10
46.9999999289
 20
-323.5329135039
 10
62.8714740787
 20
-323.5329000028
 10
78.7429482285
 20
-323.5328601074
  0
SPLINE
  5
2EA
330
2BD
100
AcDbEntity
  8
0
  6
Continuous
 62
     7
370
    25
100
AcDbSpline
210
0.0
220
0.0
230
1.0
 70
     8
 71
     3
 72
    12
 73
     8
 74
     0
 42
0.000000001
 43
0.00000001
 40
0.0
 40
0.0
 40
0.0
 40
0.0
 40
0.25
 40
0.25
 40
0.5
 40
0.5
 40
1.0
 40
1.0
 40
1.0
 40
1.0
 10
39.89510582860489
 20
-196.5074036884712
 30
0.0
 10
37.82813601438689
 20
-207.0901806747899
 30
0.0
 10
35.77291574628655
 20
-217.6752400600314
 30
0.0
 10
31.66410445847867
 20
-238.8456729744938
 30
0.0
 10
29.61191646178068
 20
-249.4313193728107
 30
0.0
 10
23.4572782930082
 20
-281.1886293396977
 30
0.0
 10
19.35693306919067
 20
-302.3607000436348
 30
0.0
 10
15.2570517715232
 20
-323.5328601073552
 30
0.0
  0
LINE
  5
30B
330
2BD
100
AcDbEntity
  8
0
  6
Continuous
 62
     7
370
    25
100
AcDbLine
 10
53.2308802154
 20
-128.1028820778
 30
0.0
 11
54.1114986633
 21
-123.4940014544
 31
0.0
  0
LINE
  5
30C
330
2BD
100
AcDbEntity
  8
0
  6
Continuous
 62
     7
370
    25
100
AcDbLine
 10
39.8896313977
 20
-123.4937620388
 30
0.0
 11
40.7710804995
 21
-128.1024991284
 31
0.0
  0
LINE
  5
30D
330
2BD
100
AcDbEntity
  8
0
  6
Continuous
 62
     7
370
    25
100
AcDbLine
 10
39.8885013367
 20
-196.5059985456
 30
0.0
 11
40.7691197846
 21
-191.8971179222
 31
0.0
  0
LINE
  5
30E
330
2BD
100
AcDbEntity
  8
0
  6
Continuous
 62
     7
370
    25
100
AcDbLine
 10
39.8951060315
 20
-123.4925973505
 30
0.0
 11
39.8896313977
 21
-123.4937620388
 31
0.0
  0
LINE
  5
30F
330
2BD
100
AcDbEntity
  8
0
  6
Continuous
 62
     7
370
    25
100
AcDbLine
 10
54.1048939685
 20
-196.5074026495
 30
0.0
 11
54.1103686023
 21
-196.5062379612
 31
0.0
  0
LINE
  5
310
330
2BD
100
AcDbEntity
  8
0
  6
Continuous
 62
     7
370
    25
100
AcDbLine
 10
54.1114986633
 20
-123.4940014544
 30
0.0
 11
54.1048941714
 21
-123.4925963115
 31
0.0
  0
LINE
  5
311
330
2BD
100
AcDbEntity
  8
0
  6
Continuous
 62
     7
370
    25
100
AcDbLine
 10
39.8885013367
 20
-196.5059985456
 30
0.0
 11
39.8951058286
 21
-196.5074036885
 31
0.0
  0
LINE
  5
312
330
2BD
100
AcDbEntity
  8
0
  6
Continuous
 62
     7
370
    25
100
AcDbLine
 10
82.3489376363
 20
-323.7931979874
 30
0.0
 11
96.0330693358
 21
-310.1090662879
 31
0.0
  0
LINE
  5
313
330
2BD
100
AcDbEntity
  8
0
  6
Continuous
 62
     7
370
    25
100
AcDbLine
 10
78.7429482285
 20
-323.5328601074
 30
0.0
 11
82.6024430573
 21
-323.5396925665
 31
0.0
  0
LINE
  5
314
330
2BD
100
AcDbEntity
  8
0
  6
Continuous
 62
     7
370
    25
100
AcDbLine
 10
15.2570517715
 20
3.5328601074
 30
0.0
 11
11.3975569427
 21
3.5396925665
 31
0.0
  0
LINE
  5
315
330
2BD
100
AcDbEntity
  8
0
  6
Continuous
 62
     7
370
    25
100
AcDbLine
 10
11.6510623637
 20
3.7931979874
 30
0.0
 11
-2.0330693358
 21
-9.8909337121
 31
0.0
  0
LINE
  5
316
330
2BD
100
AcDbEntity
  8
0
  6
Continuous
 62
     7
370
    25
100
AcDbLine
 10
11.3975569427
 20
-323.5396925665
 30
0.0
 11
15.2570517715
 21
-323.5328601074
 31
0.0
  0
LINE
  5
317
330
2BD
100
AcDbEntity
  8
0
  6
Continuous
 62
     7
370
    25
100
AcDbLine
 10
-2.0330693358
 20
-310.1090662879
 30
0.0
 11
11.6510623637
 21
-323.7931979874
 31
0.0
  0
LINE
  5
318
330
2BD
100
AcDbEntity
  8
0
  6
Continuous
 62
     7
370
    25
100
AcDbLine
 10
82.6024430573
 20
3.5396925665
 30
0.0
 11
78.7429482285
 21
3.5328601074
 31
0.0
  0
LINE
  5
319
330
2BD
100
AcDbEntity
  8
0
  6
Continuous
 62
     7
370
    25
100
AcDbLine
 10
96.0330693359
 20
-9.8909337121
 30
0.0
 11
82.3489376363
 21
3.7931979874
 31
0.0
  0
LINE
  5
31A
330
2BD
100
AcDbEntity
  8
0
  6
Continuous
 62
     7
370
    25
100
AcDbLine
 10
665.0
 20
9.5416208941
 30
0.0
 11
102.0
 21
4.5416208941
 31
0.0
  0
LINE
  5
31B
330
2BD
100
AcDbEntity
  8
0
  6
Continuous
 62
     7
370
    25
100
AcDbLine
 10
102.0
 20
-15.8578643763
 30
0.0
 11
102.0
 21
4.5416208941
 31
0.0
  0
LINE
  5
31C
330
2BD
100
AcDbEntity
  8
0
  6
Continuous
 62
     7
370
    25
100
AcDbLine
 10
102.0
 20
3.7931979874
 30
0.0
 11
82.3489376363
 21
3.7931979874
 31
0.0
  0
LINE
  5
31D
330
2BD
100
AcDbEntity
  8
0
  6
Continuous
 62
     7
370
    25
100
AcDbLine
 10
11.6510623637
 20
3.7931979874
 30
0.0
 11
-7.5135799422
 21
3.7931979874
 31
0.0
  0
LINE
  5
31E
330
2BD
100
AcDbEntity
  8
0
  6
Continuous
 62
     7
370
    25
100
AcDbLine
 10
-10.002468831
 20
10.0154202096
 30
0.0
 11
-7.5135799422
 21
3.7931979874
 31
0.0
  0
LINE
  5
31F
330
2BD
100
AcDbEntity
  8
0
  6
Continuous
 62
     7
370
    25
100
AcDbLine
 10
-10.002468831
 20
10.0154202096
 30
0.0
 11
665.0
 21
10.0154202096
 31
0.0
  0
LINE
  5
320
330
2BD
100
AcDbEntity
  8
0
  6
Continuous
 62
     7
370
    25
100
AcDbLine
 10
665.0
 20
-330.0154202096
 30
0.0
 11
-10.002468831
 21
-330.0154202096
 31
0.0
  0
LINE
  5
321
330
2BD
100
AcDbEntity
  8
0
  6
Continuous
 62
     7
370
    25
100
AcDbLine
 10
-10.002468831
 20
-330.0154202096
 30
0.0
 11
-7.5135799422
 21
-323.7931979874
 31
0.0
  0
LINE
  5
322
330
2BD
100
AcDbEntity
  8
0
  6
Continuous
 62
     7
370
    25
100
AcDbLine
 10
-7.5135799422
 20
-323.7931979874
 30
0.0
 11
11.6510623637
 21
-323.7931979874
 31
0.0
  0
LINE
  5
323
330
2BD
100
AcDbEntity
  8
0
  6
Continuous
 62
     7
370
    25
100
AcDbLine
 10
82.3489376363
 20
-323.7931979874
 30
0.0
 11
102.0
 21
-323.7931979874
 31
0.0
  0
LINE
  5
324
330
2BD
100
AcDbEntity
  8
0
  6
Continuous
 62
     7
370
    25
100
AcDbLine
 10
102.0
 20
-324.5416208941
 30
0.0
 11
102.0
 21
-304.1421356237
 31
0.0
  0
LINE
  5
325
330
2BD
100
AcDbEntity
  8
0
  6
Continuous
 62
     7
370
    25
100
AcDbLine
 10
665.0
 20
-329.5416208941
 30
0.0
 11
102.0
 21
-324.5416208941
 31
0.0
  0
LINE
  5
326
330
2BD
100
AcDbEntity
  8
0
  6
Continuous
 62
     7
370
    25
100
AcDbLine
 10
665.0
 20
-330.0154202096
 30
0.0
 11
665.0
 21
10.0154202096
 31
0.0
  0
LINE
  5
327
330
2BD
100
AcDbEntity
  8
0
  6
Continuous
 62
     7
370
    25
100
AcDbLine
 10
-7.5135799422
 20
-304.6285556816
 30
0.0
 11
-7.5135799422
 21
-323.7931979874
 31
0.0
  0
LINE
  5
328
330
2BD
100
AcDbEntity
  8
0
  6
Continuous
 62
     7
370
    25
100
AcDbLine
 10
-10.002468831
 20
-330.0154202096
 30
0.0
 11
-10.002468831
 21
10.0154202096
 31
0.0
  0
LINE
  5
329
330
2BD
100
AcDbEntity
  8
0
  6
Continuous
 62
     7
370
    25
100
AcDbLine
 10
-7.5135799422
 20
3.7931979874
 30
0.0
 11
-7.5135799422
 21
-15.3714443184
 31
0.0
  0
VIEWPORT
  5
444
330
2BD
100
AcDbEntity
  8
0
100
AcDbViewport
 10
0.0
 20
0.0
 30
0.0
 40
205.6
 41
156.0
 68
     1
 69
     1
 12
344.7136829649
 22
-71.7588603704
 13
0.0
 23
0.0
 14
10.0
 24
10.0
 15
10.0
 25
10.0
 16
0.0
 26
0.0
 36
1.0
 17
0.0
 27
0.0
 37
0.0
 42
50.0
 43
0.0
 44
0.0
 45
555.4781190292
 50
0.0
 51
0.0
 72
   100
 90
   557152
  1

281
     0
 71
     1
 74
     0
110
0.0
120
0.0
130
0.0
111
1.0
121
0.0
131
0.0
112
0.0
122
1.0
132
0.0
 79
     0
146
0.0
170
     0
 61
     5
348
2F
292
     1
282
     1
141
0.0
142
0.0
 63
   256
361
445
  0
ENDBLK
  5
2C0
330
2BD
100
AcDbEntity
  8
0
100
AcDbBlockEnd
  0
BLOCK
  5
32C
330
32A
100
AcDbEntity
  8
0
100
AcDbBlockBegin
  2
*Paper_Space6
 70
     0
 10
0.0
 20
0.0
 30
0.0
  3
*Paper_Space6
  1

  0
SPLINE
  5
32F
330
32A
100
AcDbEntity
  8
0
  6
Continuous
 62
     7
370
    25
100
AcDbSpline
210
0.0
220
0.0
230
1.0
 70
     8
 71
     3
 72
    11
 73
     7
 74
     0
 42
0.000000001
 43
0.00000001
 40
0.0
 40
0.0
 40
0.0
 40
0.0
 40
0.0858381090794233
 40
0.3803102340834575
 40
0.6640190903902575
 40
1.0
 40
1.0
 40
1.0
 40
1.0
 10
281.2028998729087
 20
16.16549700677786
 30
0.0
 10
281.2111056912552
 20
16.24718018620697
 30
0.0
 10
281.2474619988397
 20
16.60908178705201
 30
0.0
 10
281.0111625121255
 20
17.22585816279801
 30
0.0
 10
280.5248660482021
 20
17.9483080327647
 30
0.0
 10
280.0228731655641
 20
18.28809672341647
 30
0.0
 10
279.7507046796495
 20
18.47232199167054
 30
0.0
  0
SPLINE
  5
332
330
32A
100
AcDbEntity
  8
0
  6
Continuous
 62
     7
370
    25
100
AcDbSpline
210
0.0
220
0.0
230
1.0
 70
     8
 71
     3
 72
    13
 73
     9
 74
     0
 42
0.000000001
 43
0.00000001
 40
0.0
 40
0.0
 40
0.0
 40
0.0
 40
0.1213281241021141
 40
0.3275666399793497
 40
0.5347166223035689
 40
0.744284466719191
 40
0.9453199969429616
 40
1.0
 40
1.0
 40
1.0
 40
1.0
 10
226.3877129261048
 20
49.27812141111415
 30
0.0
 10
226.2078054207401
 20
49.37117056174856
 30
0.0
 10
225.7220837673683
 20
49.62238847063666
 30
0.0
 10
224.8056368486132
 20
49.86075222137859
 30
0.0
 10
223.6752825994524
 20
49.93596272666068
 30
0.0
 10
222.5684081005828
 20
49.78889970241815
 30
0.0
 10
221.804106012098
 20
49.52589963374562
 30
0.0
 10
221.4318919618688
 20
49.32177060185577
 30
0.0
 10
221.3523009212179
 20
49.27812141111415
 30
0.0
  0
LWPOLYLINE
  5
343
330
32A
100
AcDbEntity
  8
0
  6
Continuous
 62
     7
370
    25
100
AcDbPolyline
 90
        5
 70
   128
 43
0.0
 10
53.1815633241
 20
-128.8642666681
 10
41.9587081704
 20
-122.3848964914
 10
30.7358716701
 20
-115.9059034719
 10
19.5130542181
 20
-109.427296275
 10
8.2902554297
 20
-102.9490662412
  0
LWPOLYLINE
  5
34D
330
32A
100
AcDbEntity
  8
0
  6
Continuous
 62
     7
370
    25
100
AcDbPolyline
 90
        3
 70
   128
 43
0.0
 10
61.9995112534
 20
-130.3409245398
 10
58.6160934977
 20
-130.3415598687
 10
55.9058070113
 20
-130.3420954779
  0
LINE
  5
35A
330
32A
100
AcDbEntity
  8
0
  6
Continuous
 62
     7
370
    25
100
AcDbLine
 10
221.3523009212
 20
49.2781214111
 30
0.0
 11
67.9954209219
 21
-39.2529209763
 31
0.0
  0
LINE
  5
35B
330
32A
100
AcDbEntity
  8
0
  6
Continuous
 62
     7
370
    25
100
AcDbLine
 10
281.2329986772
 20
13.7541350119
 30
0.0
 11
281.2329986772
 21
16.1527385583
 31
0.0
  0
LINE
  5
35C
330
32A
100
AcDbEntity
  8
0
  6
Continuous
 62
     7
370
    25
100
AcDbLine
 10
279.7507046796
 20
18.4723219917
 30
0.0
 11
226.3877129261
 21
49.2781214111
 31
0.0
  0
LINE
  5
35D
330
32A
100
AcDbEntity
  8
0
  6
Continuous
 62
     7
370
    25
100
AcDbLine
 10
0.0
 20
0.0
 30
0.0
 11
463.1549416772
 21
-267.3736566219
 31
0.0
  0
LINE
  5
35E
330
32A
100
AcDbEntity
  8
0
  6
Continuous
 62
     7
370
    25
100
AcDbLine
 10
463.1549416772
 20
-267.3736566219
 30
0.0
 11
689.4291116569
 21
-136.7483587303
 31
0.0
  0
LINE
  5
35F
330
32A
100
AcDbEntity
  8
0
  6
Continuous
 62
     7
370
    25
100
AcDbLine
 10
689.4291116569
 20
-136.7483587303
 30
0.0
 11
226.2741699797
 21
130.6252978916
 31
0.0
  0
LINE
  5
360
330
32A
100
AcDbEntity
  8
0
  6
Continuous
 62
     7
370
    25
100
AcDbLine
 10
226.2741699797
 20
130.6252978916
 30
0.0
 11
0.0
 21
0.0
 31
0.0
  0
LINE
  5
361
330
32A
100
AcDbEntity
  8
0
  6
Continuous
 62
     7
370
    25
100
AcDbLine
 10
226.2833279873
 20
138.7966813888
 30
0.0
 11
-14.1547850857
 21
-0.0052868053
 31
0.0
  0
LINE
  5
362
330
32A
100
AcDbEntity
  8
0
  6
Continuous
 62
     7
370
    25
100
AcDbLine
 10
703.5821510154
 20
-136.7420641382
 30
0.0
 11
226.2833279873
 21
138.7966813888
 31
0.0
  0
LINE
  5
363
330
32A
100
AcDbEntity
  8
0
  6
Continuous
 62
     7
370
    25
100
AcDbLine
 10
703.5821510154
 20
-136.7420641382
 30
0.0
 11
463.1440379424
 21
-275.5440323323
 31
0.0
  0
LINE
  5
364
330
32A
100
AcDbEntity
  8
0
  6
Continuous
 62
     7
370
    25
100
AcDbLine
 10
-14.1547850857
 20
-0.0052868053
 30
0.0
 11
463.1440379424
 21
-275.5440323323
 31
0.0
  0
LINE
  5
365
330
32A
100
AcDbEntity
  8
0
  6
Continuous
 62
     7
370
    25
100
AcDbLine
 10
463.4790646513
 20
-282.3144021297
 30
0.0
 11
463.1440379424
 21
-275.5440323323
 31
0.0
  0
LINE
  5
366
330
32A
100
AcDbEntity
  8
0
  6
Continuous
 62
     7
370
    25
100
AcDbLine
 10
703.5821510154
 20
-136.7420641382
 30
0.0
 11
703.2471243065
 21
-143.8992475402
 31
0.0
  0
LINE
  5
367
330
32A
100
AcDbEntity
  8
0
  6
Continuous
 62
     7
370
    25
100
AcDbLine
 10
703.2471243065
 20
-143.8992475402
 30
0.0
 11
463.4790646513
 21
-282.3144021297
 31
0.0
  0
LINE
  5
368
330
32A
100
AcDbEntity
  8
0
  6
Continuous
 62
     7
370
    25
100
AcDbLine
 10
463.4790646513
 20
-282.3144021297
 30
0.0
 11
68.9134807492
 21
-123.9431714417
 31
0.0
  0
LINE
  5
369
330
32A
100
AcDbEntity
  8
0
  6
Continuous
 62
     7
370
    25
100
AcDbLine
 10
69.4426956618
 20
-134.6377834375
 30
0.0
 11
68.9134807492
 21
-123.9431714417
 31
0.0
  0
LINE
  5
36A
330
32A
100
AcDbEntity
  8
0
  6
Continuous
 62
     7
370
    25
100
AcDbLine
 10
69.4426956618
 20
-134.6377834375
 30
0.0
 11
55.5472962069
 21
-126.6161400777
 31
0.0
  0
LINE
  5
36B
330
32A
100
AcDbEntity
  8
0
  6
Continuous
 62
     7
370
    25
100
AcDbLine
 10
55.5472962069
 20
-126.6161400777
 30
0.0
 11
55.9058070113
 21
-130.3420954779
 31
0.0
  0
LINE
  5
36C
330
32A
100
AcDbEntity
  8
0
  6
Continuous
 62
     7
370
    25
100
AcDbLine
 10
55.9058070113
 20
-130.3420954779
 30
0.0
 11
53.1815633241
 21
-128.8642666681
 31
0.0
  0
LINE
  5
36D
330
32A
100
AcDbEntity
  8
0
  6
Continuous
 62
     7
370
    25
100
AcDbLine
 10
8.2902554297
 20
-102.9490662412
 30
0.0
 11
5.5563491861
 21
-101.2759721652
 31
0.0
  0
LINE
  5
36E
330
32A
100
AcDbEntity
  8
0
  6
Continuous
 62
     7
370
    25
100
AcDbLine
 10
5.5563491861
 20
-101.2759721652
 30
0.0
 11
5.5563491861
 21
-97.7569806471
 31
0.0
  0
LINE
  5
36F
330
32A
100
AcDbEntity
  8
0
  6
Continuous
 62
     7
370
    25
100
AcDbLine
 10
5.5563491861
 20
-97.7569806471
 30
0.0
 11
-7.9950993474
 21
-89.9338959277
 31
0.0
  0
LINE
  5
370
330
32A
100
AcDbEntity
  8
0
  6
Continuous
 62
     7
370
    25
100
AcDbLine
 10
-14.1547850857
 20
-0.0052868053
 30
0.0
 11
-7.9950993474
 21
-89.9338959277
 31
0.0
  0
LINE
  5
371
330
32A
100
AcDbEntity
  8
0
  6
Continuous
 62
     7
370
    25
100
AcDbLine
 10
128.7037782431
 20
-74.2991096787
 30
0.0
 11
287.7924599429
 21
17.5408313985
 31
0.0
  0
LINE
  5
372
330
32A
100
AcDbEntity
  8
0
  6
Continuous
 62
     7
370
    25
100
AcDbLine
 10
689.4291116569
 20
-136.7483587303
 30
0.0
 11
287.7924599429
 21
17.5408313985
 31
0.0
  0
LINE
  5
373
330
32A
100
AcDbEntity
  8
0
  6
Continuous
 62
     7
370
    25
100
AcDbLine
 10
226.2741699797
 20
130.6252978916
 30
0.0
 11
224.0305118588
 21
49.8762723798
 31
0.0
  0
LINE
  5
374
330
32A
100
AcDbEntity
  8
0
  6
Continuous
 62
     7
370
    25
100
AcDbLine
 10
80.1533602087
 20
-128.4546484063
 30
0.0
 11
69.4426956618
 21
-134.6377834375
 31
0.0
  0
LINE
  5
375
330
32A
100
AcDbEntity
  8
0
  6
Continuous
 62
     7
370
    25
100
AcDbLine
 10
77.234954633
 20
-130.139408084
 30
0.0
 11
83.1038043849
 21
-129.6389014033
 31
0.0
  0
LINE
  5
376
330
32A
100
AcDbEntity
  8
0
  6
Continuous
 62
     7
370
    25
100
AcDbLine
 10
279.0007656302
 20
18.3980599159
 30
0.0
 11
225.6377738766
 21
49.2038593354
 31
0.0
  0
LINE
  5
377
330
32A
100
AcDbEntity
  8
0
  6
Continuous
 62
     1
370
    25
100
AcDbLine
 10
222.1022399707
 20
49.2038593354
 30
0.0
 11
68.4347102599
 21
-39.5065173132
 31
0.0
  0
LINE
  5
378
330
32A
100
AcDbEntity
  8
0
  6
Continuous
 62
     1
370
    25
100
AcDbLine
 10
125.3332359194
 20
-72.3533370122
 30
0.0
 11
279.0007656302
 21
16.3570396364
 31
0.0
  0
LINE
  5
379
330
32A
100
AcDbEntity
  8
0
  6
Continuous
 62
     1
370
    25
100
AcDbLine
 10
280.061425802
 20
14.5199223347
 30
0.0
 11
127.4547286641
 21
-73.578048705
 31
0.0
  0
LINE
  5
37A
330
32A
100
AcDbEntity
  8
0
  6
Continuous
 62
     1
370
    25
100
AcDbLine
 10
280.061425802
 20
14.5199223347
 30
0.0
 11
280.061425802
 21
13.0778003872
 31
0.0
  0
ARC
  5
37B
330
32A
100
AcDbEntity
  8
0
  6
Continuous
 62
     7
370
    25
100
AcDbCircle
 10
223.8700069237
 20
45.792081623
 30
0.0
 40
3.842554769779485
100
AcDbArc
 50
62.6096722366
 51
117.3903277634
  0
ARC
  5
37C
330
32A
100
AcDbEntity
  8
0
  6
Continuous
 62
     7
370
    25
100
AcDbCircle
 10
278.6134480632
 20
17.3775497761
 30
0.0
 40
1.091538292085674
100
AcDbArc
 50
290.7834207995
 51
69.2165792005
  0
ARC
  5
37D
330
32A
100
AcDbEntity
  8
0
  6
Continuous
 62
     7
370
    25
100
AcDbCircle
 10
277.7586016499
 20
14.4151310563
 30
0.0
 40
2.305207211358027
100
AcDbArc
 50
2.6054784857
 51
57.39452166
  0
ARC
  5
37E
330
32A
100
AcDbEntity
  8
0
  6
Continuous
 62
     1
370
    25
100
AcDbCircle
 10
221.6628598884
 20
48.5905373417
 30
0.0
 40
0.754465853852714
100
AcDbArc
 50
54.3824225248
 51
114.3071190461
  0
ARC
  5
37F
330
32A
100
AcDbEntity
  8
0
  6
Continuous
 62
     1
370
    25
100
AcDbCircle
 10
279.2715271901
 20
16.3223953554
 30
0.0
 40
1.967955489206174
100
AcDbArc
 50
293.664497595
 51
355.3352435697
  0
ARC
  5
380
330
32A
100
AcDbEntity
  8
0
  6
Continuous
 62
     1
370
    25
100
AcDbCircle
 10
279.4401617838
 20
17.7846931739
 30
0.0
 40
0.7545115904357439
100
AcDbArc
 50
65.7042091859
 51
125.6165906347
  0
ARC
  5
381
330
32A
100
AcDbEntity
  8
0
  6
Continuous
 62
     1
370
    25
100
AcDbCircle
 10
226.0771539589
 20
48.5905373417
 30
0.0
 40
0.7544658538527488
100
AcDbArc
 50
65.6928809539
 51
125.6175774752
  0
VIEWPORT
  5
446
330
32A
100
AcDbEntity
  8
0
100
AcDbViewport
 10
0.0
 20
0.0
 30
0.0
 40
205.6
 41
156.0
 68
     1
 69
     1
 12
344.7136829649
 22
-71.7588603704
 13
0.0
 23
0.0
 14
10.0
 24
10.0
 15
10.0
 25
10.0
 16
0.0
 26
0.0
 36
1.0
 17
0.0
 27
0.0
 37
0.0
 42
50.0
 43
0.0
 44
0.0
 45
555.4781190292
 50
0.0
 51
0.0
 72
   100
 90
   557152
  1

281
     0
 71
     1
 74
     0
110
0.0
120
0.0
130
0.0
111
1.0
121
0.0
131
0.0
112
0.0
122
1.0
132
0.0
 79
     0
146
0.0
170
     0
 61
     5
348
2F
292
     1
282
     1
141
0.0
142
0.0
 63
   256
361
447
  0
ENDBLK
  5
32D
330
32A
100
AcDbEntity
  8
0
100
AcDbBlockEnd
  0
BLOCK
  5
384
330
382
100
AcDbEntity
  8
0
100
AcDbBlockBegin
  2
*Paper_Space7
 70
     0
 10
0.0
 20
0.0
 30
0.0
  3
*Paper_Space7
  1

  0
SPLINE
  5
387
330
382
100
AcDbEntity
  8
0
  6
Continuous
 62
     7
370
    25
100
AcDbSpline
210
0.0
220
0.0
230
1.0
 70
     8
 71
     3
 72
    12
 73
     8
 74
     0
 42
0.000000001
 43
0.00000001
 40
0.0
 40
0.0
 40
0.0
 40
0.0
 40
0.0966758308499576
 40
0.3061529645362195
 40
0.5080930600717977
 40
0.7241238629344046
 40
1.0
 40
1.0
 40
1.0
 40
1.0
 10
222.3349225119025
 20
41.18694161756642
 30
0.0
 10
222.3430174415797
 20
41.31007427028409
 30
0.0
 10
222.3686524601422
 20
41.70001068282163
 30
0.0
 10
222.1043625474208
 20
42.31532588898774
 30
0.0
 10
221.6181879060279
 20
42.92978472733844
 30
0.0
 10
220.9066310108781
 20
43.45023789651599
 30
0.0
 10
220.2814830123941
 20
43.66250850051382
 30
0.0
 10
219.9308813011413
 20
43.78155620952165
 30
0.0
  0
SPLINE
  5
38A
330
382
100
AcDbEntity
  8
0
  6
Continuous
 62
     7
370
    25
100
AcDbSpline
210
0.0
220
0.0
230
1.0
 70
     8
 71
     3
 72
    13
 73
     9
 74
     0
 42
0.000000001
 43
0.00000001
 40
0.0
 40
0.0
 40
0.0
 40
0.0
 40
0.1145520043245196
 40
0.3233523562599982
 40
0.5329362908659924
 40
0.7492414525005004
 40
0.9472484769277032
 40
1.0
 40
1.0
 40
1.0
 40
1.0
 10
153.1867937185519
 20
61.92116906166827
 30
0.0
 10
152.9953435067706
 20
61.96644692276492
 30
0.0
 10
152.4549262748679
 20
62.09425527634506
 30
0.0
 10
151.4945081746948
 20
62.15254155594486
 30
0.0
 10
150.3681930035762
 20
62.03165003185411
 30
0.0
 10
149.3604370646649
 20
61.71219907307638
 30
0.0
 10
148.7159102792003
 20
61.33089914587368
 30
0.0
 10
148.4283816753486
 20
61.06516623017897
 30
0.0
 10
148.367894916547
 20
61.00926458226662
 30
0.0
  0
LWPOLYLINE
  5
39B
330
382
100
AcDbEntity
  8
0
  6
Continuous
 62
     7
370
    25
100
AcDbPolyline
 90
        5
 70
   128
 43
0.0
 10
67.9929208457
 20
-120.5558626007
 10
53.9558829403
 20
-116.7403041607
 10
39.91885734
 20
-112.9251409333
 10
25.8818442851
 20
-109.1103820081
 10
11.8448435483
 20
-105.296018299
  0
LWPOLYLINE
  5
3A7
330
382
100
AcDbEntity
  8
0
  6
Continuous
 62
     7
370
    25
100
AcDbPolyline
 90
        3
 70
   128
 43
0.0
 10
80.1311486816
 20
-119.9896236482
 10
73.9924969736
 20
-120.9683718383
 10
71.4031393357
 20
-121.3812476854
  0
LWPOLYLINE
  5
3AB
330
382
100
AcDbEntity
  8
0
  6
Continuous
 62
     7
370
    25
100
AcDbPolyline
 90
        9
 70
   128
 43
0.0
 10
220.5817903455
 20
41.8801261484
 10
220.7669251142
 20
42.1138360536
 10
220.8599760266
 20
42.3616574346
 10
220.8573671881
 20
42.6140666546
 10
220.7591988551
 20
42.8613637689
 10
220.5692435814
 20
43.094045288
 10
220.2948012418
 20
43.3031693918
 10
219.9464185014
 20
43.480699558
 10
219.5374835136
 20
43.6198134021
  0
LINE
  5
3B5
330
382
100
AcDbEntity
  8
0
  6
Continuous
 62
     7
370
    25
100
AcDbLine
 10
148.3678949165
 20
61.0092645823
 30
0.0
 11
67.159584443
 21
-18.2525359958
 31
0.0
  0
LINE
  5
3B6
330
382
100
AcDbEntity
  8
0
  6
Continuous
 62
     7
370
    25
100
AcDbLine
 10
222.3707450413
 20
38.3657784905
 30
0.0
 11
222.3707450413
 21
41.1952899341
 31
0.0
  0
LINE
  5
3B7
330
382
100
AcDbEntity
  8
0
  6
Continuous
 62
     7
370
    25
100
AcDbLine
 10
219.9308813011
 20
43.7815562095
 30
0.0
 11
153.1867937186
 21
61.9211690617
 31
0.0
  0
LINE
  5
3B8
330
382
100
AcDbEntity
  8
0
  6
Continuous
 62
     7
370
    25
100
AcDbLine
 10
0.0
 20
0.0
 30
0.0
 11
579.2938696987
 21
-157.439661018
 31
0.0
  0
LINE
  5
3B9
330
382
100
AcDbEntity
  8
0
  6
Continuous
 62
     7
370
    25
100
AcDbLine
 10
579.2938696987
 20
-157.439661018
 30
0.0
 11
728.6363941563
 21
-11.6767788406
 31
0.0
  0
LINE
  5
3BA
330
382
100
AcDbEntity
  8
0
  6
Continuous
 62
     7
370
    25
100
AcDbLine
 10
728.6363941563
 20
-11.6767788406
 30
0.0
 11
149.3425244576
 21
145.7628821774
 31
0.0
  0
LINE
  5
3BB
330
382
100
AcDbEntity
  8
0
  6
Continuous
 62
     7
370
    25
100
AcDbLine
 10
149.3425244576
 20
145.7628821774
 30
0.0
 11
0.0
 21
0.0
 31
0.0
  0
LINE
  5
3BC
330
382
100
AcDbEntity
  8
0
  6
Continuous
 62
     7
370
    25
100
AcDbLine
 10
145.170310192
 20
152.7292486594
 30
0.0
 11
-13.5205151257
 21
-2.1578617428
 31
0.0
  0
LINE
  5
3BD
330
382
100
AcDbEntity
  8
0
  6
Continuous
 62
     7
370
    25
100
AcDbLine
 10
742.1547258031
 20
-9.518323675
 30
0.0
 11
145.170310192
 21
152.7292486594
 31
0.0
  0
LINE
  5
3BE
330
382
100
AcDbEntity
  8
0
  6
Continuous
 62
     7
370
    25
100
AcDbLine
 10
742.1547258031
 20
-9.518323675
 30
0.0
 11
583.4639004855
 21
-164.4054340772
 31
0.0
  0
LINE
  5
3BF
330
382
100
AcDbEntity
  8
0
  6
Continuous
 62
     7
370
    25
100
AcDbLine
 10
-13.5205151257
 20
-2.1578617428
 30
0.0
 11
583.4639004855
 21
-164.4054340772
 31
0.0
  0
LINE
  5
3C0
330
382
100
AcDbEntity
  8
0
  6
Continuous
 62
     7
370
    25
100
AcDbLine
 10
583.6850204413
 20
-171.4998692679
 30
0.0
 11
583.4639004855
 21
-164.4054340772
 31
0.0
  0
LINE
  5
3C1
330
382
100
AcDbEntity
  8
0
  6
Continuous
 62
     7
370
    25
100
AcDbLine
 10
742.1547258031
 20
-9.518323675
 30
0.0
 11
741.9336058473
 21
-17.044398577
 31
0.0
  0
LINE
  5
3C2
330
382
100
AcDbEntity
  8
0
  6
Continuous
 62
     7
370
    25
100
AcDbLine
 10
741.9336058473
 20
-17.044398577
 30
0.0
 11
583.6850204413
 21
-171.4998692679
 31
0.0
  0
LINE
  5
3C3
330
382
100
AcDbEntity
  8
0
  6
Continuous
 62
     7
370
    25
100
AcDbLine
 10
583.6850204413
 20
-171.4998692679
 30
0.0
 11
88.0910948815
 21
-111.0413825901
 31
0.0
  0
LINE
  5
3C4
330
382
100
AcDbEntity
  8
0
  6
Continuous
 62
     7
370
    25
100
AcDbLine
 10
88.4403804011
 20
-122.2478947843
 30
0.0
 11
88.0910948815
 21
-111.0413825901
 31
0.0
  0
LINE
  5
3C5
330
382
100
AcDbEntity
  8
0
  6
Continuous
 62
     7
370
    25
100
AcDbLine
 10
88.4403804011
 20
-122.2478947843
 30
0.0
 11
71.0606247364
 21
-117.5244495977
 31
0.0
  0
LINE
  5
3C6
330
382
100
AcDbEntity
  8
0
  6
Continuous
 62
     7
370
    25
100
AcDbLine
 10
71.0606247364
 20
-117.5244495977
 30
0.0
 11
71.4031393357
 21
-121.3812476854
 31
0.0
  0
LINE
  5
3C7
330
382
100
AcDbEntity
  8
0
  6
Continuous
 62
     7
370
    25
100
AcDbLine
 10
71.4031393357
 20
-121.3812476854
 30
0.0
 11
67.9929208457
 21
-120.5558626007
 31
0.0
  0
LINE
  5
3C8
330
382
100
AcDbEntity
  8
0
  6
Continuous
 62
     7
370
    25
100
AcDbLine
 10
11.8448435483
 20
-105.296018299
 30
0.0
 11
8.428247704
 21
-104.2660215286
 31
0.0
  0
LINE
  5
3C9
330
382
100
AcDbEntity
  8
0
  6
Continuous
 62
     7
370
    25
100
AcDbLine
 10
8.428247704
 20
-104.2660215286
 30
0.0
 11
8.5341426812
 21
-100.5310915556
 31
0.0
  0
LINE
  5
3CA
330
382
100
AcDbEntity
  8
0
  6
Continuous
 62
     7
370
    25
100
AcDbLine
 10
8.5341426812
 20
-100.5310915556
 30
0.0
 11
-8.4154142695
 21
-95.9245651614
 31
0.0
  0
LINE
  5
3CB
330
382
100
AcDbEntity
  8
0
  6
Continuous
 62
     7
370
    25
100
AcDbLine
 10
-13.5205151257
 20
-2.1578617428
 30
0.0
 11
-8.4154142695
 21
-95.9245651614
 31
0.0
  0
LINE
  5
3CC
330
382
100
AcDbEntity
  8
0
  6
Continuous
 62
     7
370
    25
100
AcDbLine
 10
143.1908673267
 20
-38.9162095303
 30
0.0
 11
228.3755147073
 21
44.2266177692
 31
0.0
  0
LINE
  5
3CD
330
382
100
AcDbEntity
  8
0
  6
Continuous
 62
     7
370
    25
100
AcDbLine
 10
728.6363941563
 20
-11.6767788406
 30
0.0
 11
228.3755147073
 21
44.2266177692
 31
0.0
  0
LINE
  5
3CE
330
382
100
AcDbEntity
  8
0
  6
Continuous
 62
     7
370
    25
100
AcDbLine
 10
149.3425244576
 20
145.7628821774
 30
0.0
 11
148.7456146508
 21
61.2930884052
 31
0.0
  0
LINE
  5
3CF
330
382
100
AcDbEntity
  8
0
  6
Continuous
 62
     7
370
    25
100
AcDbLine
 10
97.6114405938
 20
-116.4488409613
 30
0.0
 11
101.4448817094
 21
-112.670437551
 31
0.0
  0
LINE
  5
3D0
330
382
100
AcDbEntity
  8
0
  6
Continuous
 62
     7
370
    25
100
AcDbLine
 10
97.6114405938
 20
-113.2966588843
 30
0.0
 11
97.6114405938
 21
-116.4488409613
 31
0.0
  0
LINE
  5
3D1
330
382
100
AcDbEntity
  8
0
  6
Continuous
 62
     7
370
    25
100
AcDbLine
 10
97.6114405938
 20
-113.2966588843
 30
0.0
 11
88.4403804011
 21
-122.2478947843
 31
0.0
  0
LINE
  5
3D2
330
382
100
AcDbEntity
  8
0
  6
Continuous
 62
     7
370
    25
100
AcDbLine
 10
93.252122624
 20
-117.5514868639
 30
0.0
 11
97.6114405938
 21
-116.4488409613
 31
0.0
  0
LINE
  5
3D3
330
382
100
AcDbEntity
  8
0
  6
Continuous
 62
     7
370
    25
100
AcDbLine
 10
8.428247704
 20
-104.2660215286
 30
0.0
 11
5.7298234165
 21
-99.7689376687
 31
0.0
  0
LINE
  5
3D4
330
382
100
AcDbEntity
  8
0
  6
Continuous
 62
     7
370
    25
100
AcDbLine
 10
219.5374835136
 20
43.6198134021
 30
0.0
 11
152.793395931
 21
61.7594262543
 31
0.0
  0
LINE
  5
3D5
330
382
100
AcDbEntity
  8
0
  6
Continuous
 62
     1
370
    25
100
AcDbLine
 10
149.4156121545
 20
61.221568474
 30
0.0
 11
67.8089627558
 21
-18.4290231067
 31
0.0
  0
LINE
  5
3D6
330
382
100
AcDbEntity
  8
0
  6
Continuous
 62
     1
370
    25
100
AcDbLine
 10
138.9751409468
 20
-37.7704654323
 30
0.0
 11
220.5817903455
 21
41.8801261484
 31
0.0
  0
LINE
  5
3D7
330
382
100
AcDbEntity
  8
0
  6
Continuous
 62
     1
370
    25
100
AcDbLine
 10
221.908417528
 20
40.2338263553
 30
0.0
 11
141.3321747981
 21
-38.411056728
 31
0.0
  0
LINE
  5
3D8
330
382
100
AcDbEntity
  8
0
  6
Continuous
 62
     1
370
    25
100
AcDbLine
 10
221.908417528
 20
40.2338263553
 30
0.0
 11
221.908417528
 21
37.9145326642
 31
0.0
  0
ARC
  5
3D9
330
382
100
AcDbEntity
  8
0
  6
Continuous
 62
     7
370
    25
100
AcDbCircle
 10
151.6474126318
 20
58.0809941622
 30
0.0
 40
3.852809413697086
100
AcDbArc
 50
72.6960345908
 51
125.398914916
  0
ARC
  5
3DA
330
382
100
AcDbEntity
  8
0
  6
Continuous
 62
     7
370
    25
100
AcDbCircle
 10
220.0898592358
 20
40.1260528385
 30
0.0
 40
1.821748992924773
100
AcDbArc
 50
3.391562315
 51
74.3338098233
  0
ARC
  5
3DB
330
382
100
AcDbEntity
  8
0
  6
Continuous
 62
     1
370
    25
100
AcDbCircle
 10
149.0731763827
 20
60.2200968858
 30
0.0
 40
1.058398601524309
100
AcDbArc
 50
71.12277008
 51
131.7872519911
  0
ARC
  5
3DC
330
382
100
AcDbEntity
  8
0
  6
Continuous
 62
     1
370
    25
100
AcDbCircle
 10
221.0425064395
 20
41.2422724959
 30
0.0
 40
1.329197363723897
100
AcDbArc
 50
310.6513256278
 51
357.8165205491
  0
ARC
  5
3DD
330
382
100
AcDbEntity
  8
0
  6
Continuous
 62
     1
370
    25
100
AcDbCircle
 10
219.8655053866
 20
43.3812407554
 30
0.0
 40
0.4056048038178477
100
AcDbArc
 50
80.706064378
 51
143.9713374417
  0
ARC
  5
3DE
330
382
100
AcDbEntity
  8
0
  6
Continuous
 62
     1
370
    25
100
AcDbCircle
 10
153.1214577039
 20
61.520791234
 30
0.0
 40
0.4056737601623743
100
AcDbArc
 50
80.7318299957
 51
143.9675277131
  0
VIEWPORT
  5
448
330
382
100
AcDbEntity
  8
0
100
AcDbViewport
 10
0.0
 20
0.0
 30
0.0
 40
205.6
 41
156.0
 68
     1
 69
     1
 12
344.7136829649
 22
-71.7588603704
 13
0.0
 23
0.0
 14
10.0
 24
10.0
 15
10.0
 25
10.0
 16
0.0
 26
0.0
 36
1.0
 17
0.0
 27
0.0
 37
0.0
 42
50.0
 43
0.0
 44
0.0
 45
555.4781190292
 50
0.0
 51
0.0
 72
   100
 90
   557152
  1

281
     0
 71
     1
 74
     0
110
0.0
120
0.0
130
0.0
111
1.0
121
0.0
131
0.0
112
0.0
122
1.0
132
0.0
 79
     0
146
0.0
170
     0
 61
     5
348
2F
292
     1
282
     1
141
0.0
142
0.0
 63
   256
361
449
  0
ENDBLK
  5
385
330
382
100
AcDbEntity
  8
0
100
AcDbBlockEnd
  0
BLOCK
  5
3E1
330
3DF
100
AcDbEntity
  8
0
100
AcDbBlockBegin
  2
*Paper_Space8
 70
     0
 10
0.0
 20
0.0
 30
0.0
  3
*Paper_Space8
  1

  0
SPLINE
  5
3E4
330
3DF
100
AcDbEntity
  8
0
  6
Continuous
 62
     7
370
    25
100
AcDbSpline
210
0.0
220
0.0
230
1.0
 70
     8
 71
     3
 72
    13
 73
     9
 74
     0
 42
0.000000001
 43
0.00000001
 40
0.0
 40
0.0
 40
0.0
 40
0.0
 40
0.1235564948756378
 40
0.2791445803463003
 40
0.4306455098754177
 40
0.5999224339470125
 40
0.8152343833229553
 40
1.0
 40
1.0
 40
1.0
 40
1.0
 10
191.8922911813148
 20
-0.4317015786814288
 30
0.0
 10
191.8885043477471
 20
-0.2551946614169492
 30
0.0
 10
191.8799489572098
 20
0.1435779761332356
 30
0.0
 10
191.5768115835766
 20
0.6824810547818028
 30
0.0
 10
191.1319451759403
 20
1.126653969661384
 30
0.0
 10
190.5420746474174
 20
1.465865089964963
 30
0.0
 10
189.8360263641254
 20
1.709135922395369
 30
0.0
 10
189.2578959303248
 20
1.800574941241459
 30
0.0
 10
188.9909011393527
 20
1.842803719206004
 30
0.0
  0
SPLINE
  5
3E7
330
3DF
100
AcDbEntity
  8
0
  6
Continuous
 62
     7
370
    25
100
AcDbSpline
210
0.0
220
0.0
230
1.0
 70
     8
 71
     3
 72
    13
 73
     9
 74
     0
 42
0.000000001
 43
0.00000001
 40
0.0
 40
0.0
 40
0.0
 40
0.0
 40
0.1112882171989943
 40
0.3233807363065493
 40
0.5378200838139359
 40
0.7636552761698083
 40
0.9692466687611494
 40
1.0
 40
1.0
 40
1.0
 40
1.0
 10
118.3982984399042
 20
10.73663567397369
 30
0.0
 10
118.2193406424054
 20
10.75548739360896
 30
0.0
 10
117.6993259833559
 20
10.81026662477753
 30
0.0
 10
116.7882419060458
 20
10.80655263155104
 30
0.0
 10
115.7391763947227
 20
10.67958276286256
 30
0.0
 10
114.8354121615019
 20
10.42408355986447
 30
0.0
 10
114.2797979774466
 20
10.12945229643783
 30
0.0
 10
114.0288728926594
 20
9.916257481279459
 30
0.0
 10
113.9962223552429
 20
9.88851643141503
 30
0.0
  0
LWPOLYLINE
  5
3F8
330
3DF
100
AcDbEntity
  8
0
  6
Continuous
 62
     7
370
    25
100
AcDbPolyline
 90
        5
 70
   128
 43
0.0
 10
72.4082288071
 20
-120.3942011053
 10
57.5618101519
 20
-118.52306534
 10
42.7154008149
 20
-116.6523692704
 10
27.8690009648
 20
-114.7821230164
 10
13.0226104466
 20
-112.9123164597
  0
LWPOLYLINE
  5
404
330
3DF
100
AcDbEntity
  8
0
  6
Continuous
 62
     7
370
    25
100
AcDbPolyline
 90
        4
 70
   128
 43
0.0
 10
91.2377239433
 20
-118.4411851437
 10
88.1869040655
 20
-118.9009254257
 10
78.4862976297
 20
-120.3629034205
 10
76.016040002
 20
-120.7352266501
  0
LWPOLYLINE
  5
405
330
3DF
100
AcDbEntity
  8
0
  6
Continuous
 62
     7
370
    25
100
AcDbPolyline
 90
        3
 70
   128
 43
0.0
 10
9.4099679736
 20
-112.3436503498
 10
5.0307133711
 20
-109.1075777459
 10
2.5386466244
 20
-107.2661518109
  0
LWPOLYLINE
  5
408
330
3DF
100
AcDbEntity
  8
0
  6
Continuous
 62
     7
370
    25
100
AcDbPolyline
 90
        9
 70
   128
 43
0.0
 10
190.25805353
 20
0.6946423884
 10
190.385556331
 20
0.8523788178
 10
190.4182906491
 20
1.0153759068
 10
190.3549985226
 20
1.1773697687
 10
190.1981122325
 20
1.3321350702
 10
189.953660831
 20
1.4737242675
 10
189.6310384482
 20
1.5966961672
 10
189.2426432816
 20
1.6963250282
 10
188.8034011394
 20
1.7687821691
  0
LWPOLYLINE
  5
40F
330
3DF
100
AcDbEntity
  8
0
  6
Continuous
 62
     1
370
    25
100
AcDbPolyline
 90
        3
 70
   128
 43
0.0
 10
191.9195097055
 20
-0.4276029417
 10
191.8651795318
 20
-0.6439695822
 10
191.6611750501
 20
-0.8963478693
  0
LWPOLYLINE
  5
410
330
3DF
100
AcDbEntity
  8
0
  6
Continuous
 62
     1
370
    25
100
AcDbPolyline
 90
        3
 70
   128
 43
0.0
 10
188.9909391155
 20
1.8427989302
 10
188.9068634067
 20
1.8328535951
 10
188.8034011394
 20
1.7687821691
  0
LWPOLYLINE
  5
411
330
3DF
100
AcDbEntity
  8
0
  6
Continuous
 62
     1
370
    25
100
AcDbPolyline
 90
        3
 70
   128
 43
0.0
 10
118.3982984399
 20
10.736635674
 10
118.3142607072
 20
10.7266855499
 10
118.21079844
 20
10.6626141239
  0
LINE
  5
412
330
3DF
100
AcDbEntity
  8
0
  6
Continuous
 62
     7
370
    25
100
AcDbLine
 10
113.9962223552
 20
9.8885164314
 30
0.0
 11
89.9357363246
 21
-11.3308377225
 31
0.0
  0
LINE
  5
413
330
3DF
100
AcDbEntity
  8
0
  6
Continuous
 62
     7
370
    25
100
AcDbLine
 10
191.9195176632
 20
-2.3341404069
 30
0.0
 11
191.9195176632
 21
-0.4249433487
 31
0.0
  0
LINE
  5
414
330
3DF
100
AcDbEntity
  8
0
  6
Continuous
 62
     7
370
    25
100
AcDbLine
 10
188.9909011394
 20
1.8428037192
 30
0.0
 11
118.3982984399
 21
10.736635674
 31
0.0
  0
LINE
  5
415
330
3DF
100
AcDbEntity
  8
0
  6
Continuous
 62
     7
370
    25
100
AcDbLine
 10
0.0
 20
0.0
 30
0.0
 11
612.6963971043
 21
-77.1924902435
 31
0.0
  0
LINE
  5
416
330
3DF
100
AcDbEntity
  8
0
  6
Continuous
 62
     7
370
    25
100
AcDbLine
 10
612.6963971043
 20
-77.1924902435
 30
0.0
 11
725.8334820682
 21
22.58504005
 31
0.0
  0
LINE
  5
417
330
3DF
100
AcDbEntity
  8
0
  6
Continuous
 62
     7
370
    25
100
AcDbLine
 10
725.8334820682
 20
22.58504005
 30
0.0
 11
113.1370849639
 21
99.7775302935
 31
0.0
  0
LINE
  5
418
330
3DF
100
AcDbEntity
  8
0
  6
Continuous
 62
     7
370
    25
100
AcDbLine
 10
113.1370849639
 20
99.7775302935
 30
0.0
 11
0.0
 21
0.0
 31
0.0
  0
LINE
  5
419
330
3DF
100
AcDbEntity
  8
0
  6
Continuous
 62
     7
370
    25
100
AcDbLine
 10
107.3216178892
 20
104.0791884662
 30
0.0
 11
-12.8974386197
 21
-1.9440536608
 31
0.0
  0
LINE
  5
41A
330
3DF
100
AcDbEntity
  8
0
  6
Continuous
 62
     7
370
    25
100
AcDbLine
 10
738.728611308
 20
24.5293846654
 30
0.0
 11
107.3216178892
 21
104.0791884662
 31
0.0
  0
LINE
  5
41B
330
3DF
100
AcDbEntity
  8
0
  6
Continuous
 62
     7
370
    25
100
AcDbLine
 10
738.728611308
 20
24.5293846654
 30
0.0
 11
618.509554799
 21
-81.4938574617
 31
0.0
  0
LINE
  5
41C
330
3DF
100
AcDbEntity
  8
0
  6
Continuous
 62
     7
370
    25
100
AcDbLine
 10
-12.8974386197
 20
-1.9440536608
 30
0.0
 11
618.509554799
 21
-81.4938574617
 31
0.0
  0
LINE
  5
41D
330
3DF
100
AcDbEntity
  8
0
  6
Continuous
 62
     7
370
    25
100
AcDbLine
 10
618.6770681535
 20
-89.3867655836
 30
0.0
 11
618.509554799
 21
-81.4938574617
 31
0.0
  0
LINE
  5
41E
330
3DF
100
AcDbEntity
  8
0
  6
Continuous
 62
     7
370
    25
100
AcDbLine
 10
738.728611308
 20
24.5293846654
 30
0.0
 11
738.5610979535
 21
16.3410107587
 31
0.0
  0
LINE
  5
41F
330
3DF
100
AcDbEntity
  8
0
  6
Continuous
 62
     7
370
    25
100
AcDbLine
 10
738.5610979535
 20
16.3410107587
 30
0.0
 11
618.6770681535
 21
-89.3867655836
 31
0.0
  0
LINE
  5
420
330
3DF
100
AcDbEntity
  8
0
  6
Continuous
 62
     7
370
    25
100
AcDbLine
 10
618.6770681535
 20
-89.3867655836
 30
0.0
 11
93.8065579003
 21
-106.3303691474
 31
0.0
  0
LINE
  5
421
330
3DF
100
AcDbEntity
  8
0
  6
Continuous
 62
     7
370
    25
100
AcDbLine
 10
94.0711653565
 20
-118.7981652071
 30
0.0
 11
93.8065579003
 21
-106.3303691474
 31
0.0
  0
LINE
  5
422
330
3DF
100
AcDbEntity
  8
0
  6
Continuous
 62
     7
370
    25
100
AcDbLine
 10
94.0711653565
 20
-118.7981652071
 30
0.0
 11
75.6892796932
 21
-116.482265299
 31
0.0
  0
LINE
  5
423
330
3DF
100
AcDbEntity
  8
0
  6
Continuous
 62
     7
370
    25
100
AcDbLine
 10
75.6892796932
 20
-116.482265299
 30
0.0
 11
76.016040002
 21
-120.7352266501
 31
0.0
  0
LINE
  5
424
330
3DF
100
AcDbEntity
  8
0
  6
Continuous
 62
     7
370
    25
100
AcDbLine
 10
76.016040002
 20
-120.7352266501
 30
0.0
 11
72.4082288071
 21
-120.3942011053
 31
0.0
  0
LINE
  5
425
330
3DF
100
AcDbEntity
  8
0
  6
Continuous
 62
     7
370
    25
100
AcDbLine
 10
13.0226104466
 20
-112.9123164597
 30
0.0
 11
9.4099679736
 21
-112.3436503498
 31
0.0
  0
LINE
  5
426
330
3DF
100
AcDbEntity
  8
0
  6
Continuous
 62
     7
370
    25
100
AcDbLine
 10
9.4099679736
 20
-112.3436503498
 30
0.0
 11
9.5574728802
 21
-108.1504407994
 31
0.0
  0
LINE
  5
427
330
3DF
100
AcDbEntity
  8
0
  6
Continuous
 62
     7
370
    25
100
AcDbLine
 10
9.5574728802
 20
-108.1504407994
 30
0.0
 11
-8.3694084825
 21
-105.8918660449
 31
0.0
  0
LINE
  5
428
330
3DF
100
AcDbEntity
  8
0
  6
Continuous
 62
     7
370
    25
100
AcDbLine
 10
-12.8974386197
 20
-1.9440536608
 30
0.0
 11
-8.3694084825
 21
-105.8918660449
 31
0.0
  0
LINE
  5
429
330
3DF
100
AcDbEntity
  8
0
  6
Continuous
 62
     7
370
    25
100
AcDbLine
 10
170.245411107
 20
-21.4489056864
 30
0.0
 11
197.42743791
 21
2.5233886646
 31
0.0
  0
LINE
  5
42A
330
3DF
100
AcDbEntity
  8
0
  6
Continuous
 62
     7
370
    25
100
AcDbLine
 10
725.8334820682
 20
22.58504005
 30
0.0
 11
197.42743791
 21
2.5233886646
 31
0.0
  0
LINE
  5
42B
330
3DF
100
AcDbEntity
  8
0
  6
Continuous
 62
     7
370
    25
100
AcDbLine
 10
101.0188650824
 20
-116.1379945038
 30
0.0
 11
112.6452539654
 21
-105.7222279172
 31
0.0
  0
LINE
  5
42C
330
3DF
100
AcDbEntity
  8
0
  6
Continuous
 62
     7
370
    25
100
AcDbLine
 10
101.0188650824
 20
-112.6708699874
 30
0.0
 11
101.0188650824
 21
-116.1379945038
 31
0.0
  0
LINE
  5
42D
330
3DF
100
AcDbEntity
  8
0
  6
Continuous
 62
     7
370
    25
100
AcDbLine
 10
101.0188650824
 20
-112.6708699874
 30
0.0
 11
94.0711653565
 21
-118.7981652071
 31
0.0
  0
LINE
  5
42E
330
3DF
100
AcDbEntity
  8
0
  6
Continuous
 62
     7
370
    25
100
AcDbLine
 10
113.1370849639
 20
99.7775302935
 30
0.0
 11
113.2447904723
 21
9.2258158015
 31
0.0
  0
LINE
  5
42F
330
3DF
100
AcDbEntity
  8
0
  6
Continuous
 62
     7
370
    25
100
AcDbLine
 10
95.4572926552
 20
-117.5757158344
 30
0.0
 11
101.0188650824
 21
-116.1379945038
 31
0.0
  0
LINE
  5
430
330
3DF
100
AcDbEntity
  8
0
  6
Continuous
 62
     7
370
    25
100
AcDbLine
 10
188.8034011394
 20
1.7687821691
 30
0.0
 11
118.21079844
 21
10.6626141239
 31
0.0
  0
LINE
  5
431
330
3DF
100
AcDbEntity
  8
0
  6
Continuous
 62
     1
370
    25
100
AcDbLine
 10
114.9883790969
 20
10.1777299938
 30
0.0
 11
90.5169282879
 21
-11.4040610272
 31
0.0
  0
LINE
  5
432
330
3DF
100
AcDbEntity
  8
0
  6
Continuous
 62
     1
370
    25
100
AcDbLine
 10
165.786602721
 20
-20.8871486327
 30
0.0
 11
190.25805353
 21
0.6946423884
 31
0.0
  0
LINE
  5
433
330
3DF
100
AcDbEntity
  8
0
  6
Continuous
 62
     1
370
    25
100
AcDbLine
 10
191.6611750501
 20
-0.8963478693
 30
0.0
 11
168.5928457612
 21
-21.2407020231
 31
0.0
  0
LINE
  5
434
330
3DF
100
AcDbEntity
  8
0
  6
Continuous
 62
     1
370
    25
100
AcDbLine
 10
191.6611750501
 20
-0.8963478693
 30
0.0
 11
191.6611750501
 21
-2.561977176
 31
0.0
  0
ARC
  5
435
330
3DF
100
AcDbEntity
  8
0
  6
Continuous
 62
     7
370
    25
100
AcDbCircle
 10
117.2906924689
 20
5.8272687352
 30
0.0
 40
4.922109306609348
100
AcDbArc
 50
79.2261330329
 51
117.8883001309
  0
ARC
  5
436
330
3DF
100
AcDbEntity
  8
0
  6
Continuous
 62
     7
370
    25
100
AcDbCircle
 10
190.0232865951
 20
-0.9266161493
 30
0.0
 40
1.638168110936574
100
AcDbArc
 50
1.0587090425
 51
81.7605351794
  0
ARC
  5
437
330
3DF
100
AcDbEntity
  8
0
  6
Continuous
 62
     1
370
    25
100
AcDbCircle
 10
114.8109395793
 20
8.9400220324
 30
0.0
 40
1.250362259586046
100
AcDbArc
 50
81.8415869733
 51
130.6612067915
  0
VIEWPORT
  5
44A
330
3DF
100
AcDbEntity
  8
0
100
AcDbViewport
 10
0.0
 20
0.0
 30
0.0
 40
205.6
 41
156.0
 68
     1
 69
     1
 12
344.7136829649
 22
-71.7588603704
 13
0.0
 23
0.0
 14
10.0
 24
10.0
 15
10.0
 25
10.0
 16
0.0
 26
0.0
 36
1.0
 17
0.0
 27
0.0
 37
0.0
 42
50.0
 43
0.0
 44
0.0
 45
555.4781190292
 50
0.0
 51
0.0
 72
   100
 90
   557152
  1

281
     0
 71
     1
 74
     0
110
0.0
120
0.0
130
0.0
111
1.0
121
0.0
131
0.0
112
0.0
122
1.0
132
0.0
 79
     0
146
0.0
170
     0
 61
     5
348
2F
292
     1
282
     1
141
0.0
142
0.0
 63
   256
361
44B
  0
ENDBLK
  5
3E2
330
3DF
100
AcDbEntity
  8
0
100
AcDbBlockEnd
  0
ENDSEC
  0
SECTION
  2
ENTITIES
  0
SPLINE
  5
74
330
1F
100
AcDbEntity
  8
0
  6
Continuous
 62
     7
370
    25
100
AcDbSpline
210
0.0
220
0.0
230
1.0
 70
     8
 71
     3
 72
    11
 73
     7
 74
     0
 42
0.000000001
 43
0.00000001
 40
0.0
 40
0.0
 40
0.0
 40
0.0
 40
0.0858381090794233
 40
0.3803102340834575
 40
0.6640190903902575
 40
1.0
 40
1.0
 40
1.0
 40
1.0
 10
281.2028998729087
 20
16.16549700677786
 30
0.0
 10
281.2111056912552
 20
16.24718018620697
 30
0.0
 10
281.2474619988397
 20
16.60908178705201
 30
0.0
 10
281.0111625121255
 20
17.22585816279801
 30
0.0
 10
280.5248660482021
 20
17.9483080327647
 30
0.0
 10
280.0228731655641
 20
18.28809672341647
 30
0.0
 10
279.7507046796495
 20
18.47232199167054
 30
0.0
  0
SPLINE
  5
77
330
1F
100
AcDbEntity
  8
0
  6
Continuous
 62
     7
370
    25
100
AcDbSpline
210
0.0
220
0.0
230
1.0
 70
     8
 71
     3
 72
    13
 73
     9
 74
     0
 42
0.000000001
 43
0.00000001
 40
0.0
 40
0.0
 40
0.0
 40
0.0
 40
0.1213281241021141
 40
0.3275666399793497
 40
0.5347166223035689
 40
0.744284466719191
 40
0.9453199969429616
 40
1.0
 40
1.0
 40
1.0
 40
1.0
 10
226.3877129261048
 20
49.27812141111415
 30
0.0
 10
226.2078054207401
 20
49.37117056174856
 30
0.0
 10
225.7220837673683
 20
49.62238847063666
 30
0.0
 10
224.8056368486132
 20
49.86075222137859
 30
0.0
 10
223.6752825994524
 20
49.93596272666068
 30
0.0
 10
222.5684081005828
 20
49.78889970241815
 30
0.0
 10
221.804106012098
 20
49.52589963374562
 30
0.0
 10
221.4318919618688
 20
49.32177060185577
 30
0.0
 10
221.3523009212179
 20
49.27812141111415
 30
0.0
  0
LWPOLYLINE
  5
88
330
1F
100
AcDbEntity
  8
0
  6
Continuous
 62
     7
370
    25
100
AcDbPolyline
 90
        5
 70
   128
 43
0.0
 10
53.1815633241
 20
-128.8642666681
 10
41.9587081704
 20
-122.3848964914
 10
30.7358716701
 20
-115.9059034719
 10
19.5130542181
 20
-109.427296275
 10
8.2902554297
 20
-102.9490662412
  0
LWPOLYLINE
  5
92
330
1F
100
AcDbEntity
  8
0
  6
Continuous
 62
     7
370
    25
100
AcDbPolyline
 90
        3
 70
   128
 43
0.0
 10
61.9995112534
 20
-130.3409245398
 10
58.6160934977
 20
-130.3415598687
 10
55.9058070113
 20
-130.3420954779
  0
LINE
  5
9F
330
1F
100
AcDbEntity
  8
0
  6
Continuous
 62
     7
370
    25
100
AcDbLine
 10
221.3523009212
 20
49.2781214111
 30
0.0
 11
67.9954209219
 21
-39.2529209763
 31
0.0
  0
LINE
  5
A0
330
1F
100
AcDbEntity
  8
0
  6
Continuous
 62
     7
370
    25
100
AcDbLine
 10
281.2329986772
 20
13.7541350119
 30
0.0
 11
281.2329986772
 21
16.1527385583
 31
0.0
  0
LINE
  5
A1
330
1F
100
AcDbEntity
  8
0
  6
Continuous
 62
     7
370
    25
100
AcDbLine
 10
279.7507046796
 20
18.4723219917
 30
0.0
 11
226.3877129261
 21
49.2781214111
 31
0.0
  0
LINE
  5
A2
330
1F
100
AcDbEntity
  8
0
  6
Continuous
 62
     7
370
    25
100
AcDbLine
 10
0.0
 20
0.0
 30
0.0
 11
463.1549416772
 21
-267.3736566219
 31
0.0
  0
LINE
  5
A3
330
1F
100
AcDbEntity
  8
0
  6
Continuous
 62
     7
370
    25
100
AcDbLine
 10
463.1549416772
 20
-267.3736566219
 30
0.0
 11
689.4291116569
 21
-136.7483587303
 31
0.0
  0
LINE
  5
A4
330
1F
100
AcDbEntity
  8
0
  6
Continuous
 62
     7
370
    25
100
AcDbLine
 10
689.4291116569
 20
-136.7483587303
 30
0.0
 11
226.2741699797
 21
130.6252978916
 31
0.0
  0
LINE
  5
A5
330
1F
100
AcDbEntity
  8
0
  6
Continuous
 62
     7
370
    25
100
AcDbLine
 10
226.2741699797
 20
130.6252978916
 30
0.0
 11
0.0
 21
0.0
 31
0.0
  0
LINE
  5
A6
330
1F
100
AcDbEntity
  8
0
  6
Continuous
 62
     7
370
    25
100
AcDbLine
 10
226.2833279873
 20
138.7966813888
 30
0.0
 11
-14.1547850857
 21
-0.0052868053
 31
0.0
  0
LINE
  5
A7
330
1F
100
AcDbEntity
  8
0
  6
Continuous
 62
     7
370
    25
100
AcDbLine
 10
703.5821510154
 20
-136.7420641382
 30
0.0
 11
226.2833279873
 21
138.7966813888
 31
0.0
  0
LINE
  5
A8
330
1F
100
AcDbEntity
  8
0
  6
Continuous
 62
     7
370
    25
100
AcDbLine
 10
703.5821510154
 20
-136.7420641382
 30
0.0
 11
463.1440379424
 21
-275.5440323323
 31
0.0
  0
LINE
  5
A9
330
1F
100
AcDbEntity
  8
0
  6
Continuous
 62
     7
370
    25
100
AcDbLine
 10
-14.1547850857
 20
-0.0052868053
 30
0.0
 11
463.1440379424
 21
-275.5440323323
 31
0.0
  0
LINE
  5
AA
330
1F
100
AcDbEntity
  8
0
  6
Continuous
 62
     7
370
    25
100
AcDbLine
 10
463.4790646513
 20
-282.3144021297
 30
0.0
 11
463.1440379424
 21
-275.5440323323
 31
0.0
  0
LINE
  5
AB
330
1F
100
AcDbEntity
  8
0
  6
Continuous
 62
     7
370
    25
100
AcDbLine
 10
703.5821510154
 20
-136.7420641382
 30
0.0
 11
703.2471243065
 21
-143.8992475402
 31
0.0
  0
LINE
  5
AC
330
1F
100
AcDbEntity
  8
0
  6
Continuous
 62
     7
370
    25
100
AcDbLine
 10
703.2471243065
 20
-143.8992475402
 30
0.0
 11
463.4790646513
 21
-282.3144021297
 31
0.0
  0
LINE
  5
AD
330
1F
100
AcDbEntity
  8
0
  6
Continuous
 62
     7
370
    25
100
AcDbLine
 10
463.4790646513
 20
-282.3144021297
 30
0.0
 11
68.9134807492
 21
-123.9431714417
 31
0.0
  0
LINE
  5
AE
330
1F
100
AcDbEntity
  8
0
  6
Continuous
 62
     7
370
    25
100
AcDbLine
 10
69.4426956618
 20
-134.6377834375
 30
0.0
 11
68.9134807492
 21
-123.9431714417
 31
0.0
  0
LINE
  5
AF
330
1F
100
AcDbEntity
  8
0
  6
Continuous
 62
     7
370
    25
100
AcDbLine
 10
69.4426956618
 20
-134.6377834375
 30
0.0
 11
55.5472962069
 21
-126.6161400777
 31
0.0
  0
LINE
  5
B0
330
1F
100
AcDbEntity
  8
0
  6
Continuous
 62
     7
370
    25
100
AcDbLine
 10
55.5472962069
 20
-126.6161400777
 30
0.0
 11
55.9058070113
 21
-130.3420954779
 31
0.0
  0
LINE
  5
B1
330
1F
100
AcDbEntity
  8
0
  6
Continuous
 62
     7
370
    25
100
AcDbLine
 10
55.9058070113
 20
-130.3420954779
 30
0.0
 11
53.1815633241
 21
-128.8642666681
 31
0.0
  0
LINE
  5
B2
330
1F
100
AcDbEntity
  8
0
  6
Continuous
 62
     7
370
    25
100
AcDbLine
 10
8.2902554297
 20
-102.9490662412
 30
0.0
 11
5.5563491861
 21
-101.2759721652
 31
0.0
  0
LINE
  5
B3
330
1F
100
AcDbEntity
  8
0
  6
Continuous
 62
     7
370
    25
100
AcDbLine
 10
5.5563491861
 20
-101.2759721652
 30
0.0
 11
5.5563491861
 21
-97.7569806471
 31
0.0
  0
LINE
  5
B4
330
1F
100
AcDbEntity
  8
0
  6
Continuous
 62
     7
370
    25
100
AcDbLine
 10
5.5563491861
 20
-97.7569806471
 30
0.0
 11
-7.9950993474
 21
-89.9338959277
 31
0.0
  0
LINE
  5
B5
330
1F
100
AcDbEntity
  8
0
  6
Continuous
 62
     7
370
    25
100
AcDbLine
 10
-14.1547850857
 20
-0.0052868053
 30
0.0
 11
-7.9950993474
 21
-89.9338959277
 31
0.0
  0
LINE
  5
B6
330
1F
100
AcDbEntity
  8
0
  6
Continuous
 62
     7
370
    25
100
AcDbLine
 10
128.7037782431
 20
-74.2991096787
 30
0.0
 11
287.7924599429
 21
17.5408313985
 31
0.0
  0
LINE
  5
B7
330
1F
100
AcDbEntity
  8
0
  6
Continuous
 62
     7
370
    25
100
AcDbLine
 10
689.4291116569
 20
-136.7483587303
 30
0.0
 11
287.7924599429
 21
17.5408313985
 31
0.0
  0
LINE
  5
B8
330
1F
100
AcDbEntity
  8
0
  6
Continuous
 62
     7
370
    25
100
AcDbLine
 10
226.2741699797
 20
130.6252978916
 30
0.0
 11
224.0305118588
 21
49.8762723798
 31
0.0
  0
LINE
  5
B9
330
1F
100
AcDbEntity
  8
0
  6
Continuous
 62
     7
370
    25
100
AcDbLine
 10
80.1533602087
 20
-128.4546484063
 30
0.0
 11
69.4426956618
 21
-134.6377834375
 31
0.0
  0
LINE
  5
BA
330
1F
100
AcDbEntity
  8
0
  6
Continuous
 62
     7
370
    25
100
AcDbLine
 10
77.234954633
 20
-130.139408084
 30
0.0
 11
83.1038043849
 21
-129.6389014033
 31
0.0
  0
LINE
  5
BB
330
1F
100
AcDbEntity
  8
0
  6
Continuous
 62
     7
370
    25
100
AcDbLine
 10
279.0007656302
 20
18.3980599159
 30
0.0
 11
225.6377738766
 21
49.2038593354
 31
0.0
  0
LINE
  5
BC
330
1F
100
AcDbEntity
  8
0
  6
Continuous
 62
     1
370
    25
100
AcDbLine
 10
222.1022399707
 20
49.2038593354
 30
0.0
 11
68.4347102599
 21
-39.5065173132
 31
0.0
  0
LINE
  5
BD
330
1F
100
AcDbEntity
  8
0
  6
Continuous
 62
     1
370
    25
100
AcDbLine
 10
125.3332359194
 20
-72.3533370122
 30
0.0
 11
279.0007656302
 21
16.3570396364
 31
0.0
  0
LINE
  5
BE
330
1F
100
AcDbEntity
  8
0
  6
Continuous
 62
     1
370
    25
100
AcDbLine
 10
280.061425802
 20
14.5199223347
 30
0.0
 11
127.4547286641
 21
-73.578048705
 31
0.0
  0
LINE
  5
BF
330
1F
100
AcDbEntity
  8
0
  6
Continuous
 62
     1
370
    25
100
AcDbLine
 10
280.061425802
 20
14.5199223347
 30
0.0
 11
280.061425802
 21
13.0778003872
 31
0.0
  0
ARC
  5
C0
330
1F
100
AcDbEntity
  8
0
  6
Continuous
 62
     7
370
    25
100
AcDbCircle
 10
223.8700069237
 20
45.792081623
 30
0.0
 40
3.842554769779485
100
AcDbArc
 50
62.6096722366
 51
117.3903277634
  0
ARC
  5
C1
330
1F
100
AcDbEntity
  8
0
  6
Continuous
 62
     7
370
    25
100
AcDbCircle
 10
278.6134480632
 20
17.3775497761
 30
0.0
 40
1.091538292085674
100
AcDbArc
 50
290.7834207995
 51
69.2165792005
  0
ARC
  5
C2
330
1F
100
AcDbEntity
  8
0
  6
Continuous
 62
     7
370
    25
100
AcDbCircle
 10
277.7586016499
 20
14.4151310563
 30
0.0
 40
2.305207211358027
100
AcDbArc
 50
2.6054784857
 51
57.39452166
  0
ARC
  5
C3
330
1F
100
AcDbEntity
  8
0
  6
Continuous
 62
     1
370
    25
100
AcDbCircle
 10
221.6628598884
 20
48.5905373417
 30
0.0
 40
0.754465853852714
100
AcDbArc
 50
54.3824225248
 51
114.3071190461
  0
ARC
  5
C4
330
1F
100
AcDbEntity
  8
0
  6
Continuous
 62
     1
370
    25
100
AcDbCircle
 10
279.2715271901
 20
16.3223953554
 30
0.0
 40
1.967955489206174
100
AcDbArc
 50
293.664497595
 51
355.3352435697
  0
ARC
  5
C5
330
1F
100
AcDbEntity
  8
0
  6
Continuous
 62
     1
370
    25
100
AcDbCircle
 10
279.4401617838
 20
17.7846931739
 30
0.0
 40
0.7545115904357439
100
AcDbArc
 50
65.7042091859
 51
125.6165906347
  0
ARC
  5
C6
330
1F
100
AcDbEntity
  8
0
  6
Continuous
 62
     1
370
    25
100
AcDbCircle
 10
226.0771539589
 20
48.5905373417
 30
0.0
 40
0.7544658538527488
100
AcDbArc
 50
65.6928809539
 51
125.6175774752
  0
LWPOLYLINE
  5
D5
330
1B
100
AcDbEntity
 67
     1
  8
0
  6
Continuous
 62
     7
370
    25
100
AcDbPolyline
 90
        4
 70
   128
 43
0.0
 10
76.8168214635
 20
5.9464224387
 10
61.8168214637
 20
5.9464270396
 10
46.8168214637
 20
5.9464285712
 10
17.1831785365
 20
5.9464224387
  0
SPLINE
  5
DB
330
1B
100
AcDbEntity
 67
     1
  8
0
  6
Continuous
 62
     7
370
    25
100
AcDbSpline
210
0.0
220
0.0
230
1.0
 70
     8
 71
     3
 72
    32
 73
    28
 74
     0
 42
0.000000001
 43
0.00000001
 40
0.0
 40
0.0
 40
0.0
 40
0.0
 40
0.0311636822792355
 40
0.0311636822792355
 40
0.0311636822792355
 40
0.0623273645572063
 40
0.0623273645572063
 40
0.0623273645572063
 40
0.0934910468046392
 40
0.0934910468046392
 40
0.0934910468046392
 40
0.1246547292235637
 40
0.1246547292235637
 40
0.1246547292235637
 40
0.1558184120073686
 40
0.1558184120073686
 40
0.1558184120073686
 40
0.1869820944710467
 40
0.1869820944710467
 40
0.1869820944710467
 40
0.2181457767194132
 40
0.2181457767194132
 40
0.2181457767194132
 40
0.2478941482300754
 40
0.2478941482300754
 40
0.2478941482300754
 40
0.2776425198657213
 40
0.2776425198657213
 40
0.2776425198657213
 40
0.2776425198657213
 10
2.378882284132688
 20
21.17874488396829
 30
0.0
 10
2.378926480103793
 20
31.56663878656768
 30
0.0
 10
2.378978055416481
 20
41.95453263268586
 30
0.0
 10
2.379038207489803
 20
52.34242637292002
 30
0.0
 10
2.379098359563125
 20
62.73032011325392
 30
0.0
 10
2.379167513962666
 20
73.11821375056151
 30
0.0
 10
2.379242195594433
 20
83.50610729985165
 30
0.0
 10
2.37931687722609
 20
93.89400084323155
 30
0.0
 10
2.379397488217361
 20
104.281894300886
 30
0.0
 10
2.379469118518496
 20
114.6697878878021
 30
0.0
 10
2.379540748819908
 20
125.0576815040396
 30
0.0
 10
2.379602102725753
 20
135.445575346186
 30
0.0
 10
2.379631909656732
 20
145.8334693761357
 30
0.0
 10
2.379661716587933
 20
156.2213634813575
 30
0.0
 10
2.379658308444943
 20
166.6092578786102
 30
0.0
 10
2.379623038313683
 20
176.9971519491617
 30
0.0
 10
2.379587768182534
 20
187.3850459649277
 30
0.0
 10
2.379522650665933
 20
197.7729397665994
 30
0.0
 10
2.379449366961106
 20
208.1608333799581
 30
0.0
 10
2.379376083256612
 20
218.5487269440362
 30
0.0
 10
2.379295717283847
 20
228.9366204050584
 30
0.0
 10
2.379221969802614
 20
239.3245139624869
 30
0.0
 10
2.379151571591909
 20
249.240637294042
 30
0.0
 10
2.379086757292703
 20
259.1567607124304
 30
0.0
 10
2.37903006387763
 20
269.0728842219188
 30
0.0
 10
2.378973370462334
 20
278.9890077728306
 30
0.0
 10
2.378924472926702
 20
288.9051314186015
 30
0.0
 10
2.378882284132688
 20
298.8212551160316
 30
0.0
  0
LWPOLYLINE
  5
E0
330
1B
100
AcDbEntity
 67
     1
  8
0
  6
Continuous
 62
     7
370
    25
100
AcDbPolyline
 90
        4
 70
   128
 43
0.0
 10
17.1831785365
 20
314.0535775613
 10
32.1831785363
 20
314.0535729604
 10
47.1831785363
 20
314.0535714288
 10
76.8168214635
 20
314.0535775613
  0
LINE
  5
10B
330
1B
100
AcDbEntity
 67
     1
  8
0
  6
Continuous
 62
     7
370
    25
100
AcDbLine
 10
0.0
 20
0.0
 30
0.0
 11
655.0
 21
0.0
 31
0.0
  0
LINE
  5
10C
330
1B
100
AcDbEntity
 67
     1
  8
0
  6
Continuous
 62
     7
370
    25
100
AcDbLine
 10
655.0
 20
0.0
 30
0.0
 11
655.0
 21
320.0
 31
0.0
  0
LINE
  5
10D
330
1B
100
AcDbEntity
 67
     1
  8
0
  6
Continuous
 62
     7
370
    25
100
AcDbLine
 10
655.0
 20
320.0
 30
0.0
 11
0.0
 21
320.0
 31
0.0
  0
LINE
  5
10E
330
1B
100
AcDbEntity
 67
     1
  8
0
  6
Continuous
 62
     7
370
    25
100
AcDbLine
 10
0.0
 20
320.0
 30
0.0
 11
0.0
 21
0.0
 31
0.0
  0
LINE
  5
10F
330
1B
100
AcDbEntity
 67
     1
  8
0
  6
Continuous
 62
     7
370
    25
100
AcDbLine
 10
-10.002468831
 20
330.0154202096
 30
0.0
 11
-10.002468831
 21
-10.0154202096
 31
0.0
  0
LINE
  5
110
330
1B
100
AcDbEntity
 67
     1
  8
0
  6
Continuous
 62
     7
370
    25
100
AcDbLine
 10
665.0
 20
330.0154202096
 30
0.0
 11
-10.002468831
 21
330.0154202096
 31
0.0
  0
LINE
  5
111
330
1B
100
AcDbEntity
 67
     1
  8
0
  6
Continuous
 62
     7
370
    25
100
AcDbLine
 10
665.0
 20
330.0154202096
 30
0.0
 11
665.0
 21
-10.0154202096
 31
0.0
  0
LINE
  5
112
330
1B
100
AcDbEntity
 67
     1
  8
0
  6
Continuous
 62
     7
370
    25
100
AcDbLine
 10
-10.002468831
 20
-10.0154202096
 30
0.0
 11
665.0
 21
-10.0154202096
 31
0.0
  0
LINE
  5
113
330
1B
100
AcDbEntity
 67
     1
  8
0
  6
Continuous
 62
     7
370
    25
100
AcDbLine
 10
92.0
 20
5.0
 30
0.0
 11
92.0
 21
315.0
 31
0.0
  0
LINE
  5
114
330
1B
100
AcDbEntity
 67
     1
  8
0
  6
Continuous
 62
     7
370
    25
100
AcDbLine
 10
655.0
 20
320.0
 30
0.0
 11
92.0
 21
315.0
 31
0.0
  0
LINE
  5
115
330
1B
100
AcDbEntity
 67
     1
  8
0
  6
Continuous
 62
     7
370
    25
100
AcDbLine
 10
655.0
 20
0.0
 30
0.0
 11
92.0
 21
5.0
 31
0.0
  0
LINE
  5
116
330
1B
100
AcDbEntity
 67
     1
  8
0
  6
Continuous
 62
     7
370
    25
100
AcDbLine
 10
0.0
 20
0.0
 30
0.0
 11
2.2666666667
 21
5.6666666667
 31
0.0
  0
LINE
  5
117
330
1B
100
AcDbEntity
 67
     1
  8
0
  6
Continuous
 62
     7
370
    25
100
AcDbLine
 10
16.3333333333
 20
5.6666666667
 30
0.0
 11
2.2666666667
 21
5.6666666667
 31
0.0
  0
LINE
  5
118
330
1B
100
AcDbEntity
 67
     1
  8
0
  6
Continuous
 62
     7
370
    25
100
AcDbLine
 10
17.1831785365
 20
5.9464224387
 30
0.0
 11
16.0555555556
 21
5.9444444444
 31
0.0
  0
LINE
  5
119
330
1B
100
AcDbEntity
 67
     1
  8
0
  6
Continuous
 62
     7
370
    25
100
AcDbLine
 10
77.9444444444
 20
5.9444444444
 30
0.0
 11
76.8168214635
 21
5.9464224387
 31
0.0
  0
LINE
  5
11A
330
1B
100
AcDbEntity
 67
     1
  8
0
  6
Continuous
 62
     7
370
    25
100
AcDbLine
 10
92.0
 20
5.6666666667
 30
0.0
 11
77.6666666667
 21
5.6666666667
 31
0.0
  0
LINE
  5
11B
330
1B
100
AcDbEntity
 67
     1
  8
0
  6
Continuous
 62
     7
370
    25
100
AcDbLine
 10
0.0
 20
320.0
 30
0.0
 11
2.2666666667
 21
314.3333333333
 31
0.0
  0
LINE
  5
11C
330
1B
100
AcDbEntity
 67
     1
  8
0
  6
Continuous
 62
     7
370
    25
100
AcDbLine
 10
2.2666666667
 20
300.2666666667
 30
0.0
 11
2.2666666667
 21
314.3333333333
 31
0.0
  0
LINE
  5
11D
330
1B
100
AcDbEntity
 67
     1
  8
0
  6
Continuous
 62
     7
370
    25
100
AcDbLine
 10
2.3788822841
 20
298.821255116
 30
0.0
 11
2.3777777778
 21
300.3777777778
 31
0.0
  0
LINE
  5
11E
330
1B
100
AcDbEntity
 67
     1
  8
0
  6
Continuous
 62
     7
370
    25
100
AcDbLine
 10
2.3777777778
 20
19.6222222222
 30
0.0
 11
2.3788822841
 21
21.178744884
 31
0.0
  0
LINE
  5
11F
330
1B
100
AcDbEntity
 67
     1
  8
0
  6
Continuous
 62
     7
370
    25
100
AcDbLine
 10
2.2666666667
 20
5.6666666667
 30
0.0
 11
2.2666666667
 21
19.7333333333
 31
0.0
  0
LINE
  5
120
330
1B
100
AcDbEntity
 67
     1
  8
0
  6
Continuous
 62
     7
370
    25
100
AcDbLine
 10
77.6666666667
 20
314.3333333333
 30
0.0
 11
92.0
 21
314.3333333333
 31
0.0
  0
LINE
  5
121
330
1B
100
AcDbEntity
 67
     1
  8
0
  6
Continuous
 62
     7
370
    25
100
AcDbLine
 10
76.8168214635
 20
314.0535775613
 30
0.0
 11
77.9444444444
 21
314.0555555556
 31
0.0
  0
LINE
  5
122
330
1B
100
AcDbEntity
 67
     1
  8
0
  6
Continuous
 62
     7
370
    25
100
AcDbLine
 10
16.0555555556
 20
314.0555555556
 30
0.0
 11
17.1831785365
 21
314.0535775613
 31
0.0
  0
LINE
  5
123
330
1B
100
AcDbEntity
 67
     1
  8
0
  6
Continuous
 62
     7
370
    25
100
AcDbLine
 10
2.2666666667
 20
314.3333333333
 30
0.0
 11
16.3333333333
 21
314.3333333333
 31
0.0
  0
LINE
  5
124
330
1B
100
AcDbEntity
 67
     1
  8
0
  6
Continuous
 62
     7
370
    25
100
AcDbLine
 10
92.0
 20
20.0
 30
0.0
 11
88.7333333333
 21
16.7333333333
 31
0.0
  0
LINE
  5
125
330
1B
100
AcDbEntity
 67
     1
  8
0
  6
Continuous
 62
     7
370
    25
100
AcDbLine
 10
80.6666666667
 20
8.6666666667
 30
0.0
 11
77.6666666667
 21
5.6666666667
 31
0.0
  0
LINE
  5
126
330
1B
100
AcDbEntity
 67
     1
  8
0
  6
Continuous
 62
     7
370
    25
100
AcDbLine
 10
77.6666666667
 20
314.3333333333
 30
0.0
 11
80.6666666667
 21
311.3333333333
 31
0.0
  0
LINE
  5
127
330
1B
100
AcDbEntity
 67
     1
  8
0
  6
Continuous
 62
     7
370
    25
100
AcDbLine
 10
88.7333333333
 20
303.2666666667
 30
0.0
 11
92.0
 21
300.0
 31
0.0
  0
LINE
  5
128
330
1B
100
AcDbEntity
 67
     1
  8
0
  6
Continuous
 62
     7
370
    25
100
AcDbLine
 10
2.2666666667
 20
300.2666666667
 30
0.0
 11
5.2666666667
 21
303.2666666667
 31
0.0
  0
LINE
  5
129
330
1B
100
AcDbEntity
 67
     1
  8
0
  6
Continuous
 62
     7
370
    25
100
AcDbLine
 10
13.3333333333
 20
311.3333333333
 30
0.0
 11
16.3333333333
 21
314.3333333333
 31
0.0
  0
LINE
  5
12A
330
1B
100
AcDbEntity
 67
     1
  8
0
  6
Continuous
 62
     7
370
    25
100
AcDbLine
 10
16.3333333333
 20
5.6666666667
 30
0.0
 11
13.3333333333
 21
8.6666666667
 31
0.0
  0
LINE
  5
12B
330
1B
100
AcDbEntity
 67
     1
  8
0
  6
Continuous
 62
     7
370
    25
100
AcDbLine
 10
5.2666666667
 20
16.7333333333
 30
0.0
 11
2.2666666667
 21
19.7333333333
 31
0.0
  0
LINE
  5
12C
330
1B
100
AcDbEntity
 67
     1
  8
0
  6
Continuous
 62
     7
370
    25
100
AcDbLine
 10
92.0
 20
300.0
 30
0.0
 11
88.7333333333
 21
289.837037037
 31
0.0
  0
LINE
  5
12D
330
1B
100
AcDbEntity
 67
     1
  8
0
  6
Continuous
 62
     7
370
    25
100
AcDbLine
 10
76.8168214635
 20
314.0535775613
 30
0.0
 11
76.2903225806
 21
311.3333333333
 31
0.0
  0
LINE
  5
12E
330
1B
100
AcDbEntity
 67
     1
  8
0
  6
Continuous
 62
     7
370
    25
100
AcDbLine
 10
76.8168214635
 20
5.9464224387
 30
0.0
 11
76.2903225806
 21
8.6666666667
 31
0.0
  0
LINE
  5
12F
330
1B
100
AcDbEntity
 67
     1
  8
0
  6
Continuous
 62
     7
370
    25
100
AcDbLine
 10
92.0
 20
20.0
 30
0.0
 11
88.7333333333
 21
30.162962963
 31
0.0
  0
LINE
  5
130
330
1B
100
AcDbEntity
 67
     1
  8
0
  6
Continuous
 62
     7
370
    25
100
AcDbLine
 10
2.3788822841
 20
21.178744884
 30
0.0
 11
5.2666666667
 21
30.162962963
 31
0.0
  0
LINE
  5
131
330
1B
100
AcDbEntity
 67
     1
  8
0
  6
Continuous
 62
     7
370
    25
100
AcDbLine
 10
17.1831785365
 20
5.9464224387
 30
0.0
 11
17.7096774194
 21
8.6666666667
 31
0.0
  0
LINE
  5
132
330
1B
100
AcDbEntity
 67
     1
  8
0
  6
Continuous
 62
     7
370
    25
100
AcDbLine
 10
17.7096774194
 20
311.3333333333
 30
0.0
 11
17.1831785365
 21
314.0535775613
 31
0.0
  0
LINE
  5
133
330
1B
100
AcDbEntity
 67
     1
  8
0
  6
Continuous
 62
     7
370
    25
100
AcDbLine
 10
2.3788822841
 20
298.821255116
 30
0.0
 11
5.2666666667
 21
289.837037037
 31
0.0
  0
LINE
  5
134
330
1B
100
AcDbEntity
 67
     1
  8
0
  6
Continuous
 62
     7
370
    25
100
AcDbLine
 10
9.2666666667
 20
311.3333333333
 30
0.0
 11
84.7333333333
 21
311.3333333333
 31
0.0
  0
LINE
  5
135
330
1B
100
AcDbEntity
 67
     1
  8
0
  6
Continuous
 62
     7
370
    25
100
AcDbLine
 10
84.7333333333
 20
311.3333333333
 30
0.0
 11
84.7333333333
 21
309.8333333333
 31
0.0
  0
LINE
  5
136
330
1B
100
AcDbEntity
 67
     1
  8
0
  6
Continuous
 62
     7
370
    25
100
AcDbLine
 10
84.7333333333
 20
309.8333333333
 30
0.0
 11
9.2666666667
 21
309.8333333333
 31
0.0
  0
LINE
  5
137
330
1B
100
AcDbEntity
 67
     1
  8
0
  6
Continuous
 62
     7
370
    25
100
AcDbLine
 10
9.2666666667
 20
311.3333333333
 30
0.0
 11
9.2666666667
 21
309.8333333333
 31
0.0
  0
LINE
  5
138
330
1B
100
AcDbEntity
 67
     1
  8
0
  6
Continuous
 62
     7
370
    25
100
AcDbLine
 10
88.7333333333
 20
307.3333333333
 30
0.0
 11
88.7333333333
 21
12.6666666667
 31
0.0
  0
LINE
  5
139
330
1B
100
AcDbEntity
 67
     1
  8
0
  6
Continuous
 62
     7
370
    25
100
AcDbLine
 10
88.7333333333
 20
12.6666666667
 30
0.0
 11
87.2333333333
 21
12.6666666667
 31
0.0
  0
LINE
  5
13A
330
1B
100
AcDbEntity
 67
     1
  8
0
  6
Continuous
 62
     7
370
    25
100
AcDbLine
 10
87.2333333333
 20
12.6666666667
 30
0.0
 11
87.2333333333
 21
307.3333333333
 31
0.0
  0
LINE
  5
13B
330
1B
100
AcDbEntity
 67
     1
  8
0
  6
Continuous
 62
     7
370
    25
100
AcDbLine
 10
88.7333333333
 20
307.3333333333
 30
0.0
 11
87.2333333333
 21
307.3333333333
 31
0.0
  0
LINE
  5
13C
330
1B
100
AcDbEntity
 67
     1
  8
0
  6
Continuous
 62
     7
370
    25
100
AcDbLine
 10
9.2666666667
 20
10.1666666667
 30
0.0
 11
9.2666666667
 21
8.6666666667
 31
0.0
  0
LINE
  5
13D
330
1B
100
AcDbEntity
 67
     1
  8
0
  6
Continuous
 62
     7
370
    25
100
AcDbLine
 10
6.7666666667
 20
12.6666666667
 30
0.0
 11
5.2666666667
 21
12.6666666667
 31
0.0
  0
LINE
  5
13E
330
1B
100
AcDbEntity
 67
     1
  8
0
  6
Continuous
 62
     7
370
    25
100
AcDbLine
 10
84.7333333333
 20
10.1666666667
 30
0.0
 11
84.7333333333
 21
8.6666666667
 31
0.0
  0
LINE
  5
13F
330
1B
100
AcDbEntity
 67
     1
  8
0
  6
Continuous
 62
     7
370
    25
100
AcDbLine
 10
9.2666666667
 20
10.1666666667
 30
0.0
 11
84.7333333333
 21
10.1666666667
 31
0.0
  0
LINE
  5
140
330
1B
100
AcDbEntity
 67
     1
  8
0
  6
Continuous
 62
     7
370
    25
100
AcDbLine
 10
84.7333333333
 20
8.6666666667
 30
0.0
 11
9.2666666667
 21
8.6666666667
 31
0.0
  0
LINE
  5
141
330
1B
100
AcDbEntity
 67
     1
  8
0
  6
Continuous
 62
     7
370
    25
100
AcDbLine
 10
6.7666666667
 20
307.3333333333
 30
0.0
 11
6.7666666667
 21
12.6666666667
 31
0.0
  0
LINE
  5
142
330
1B
100
AcDbEntity
 67
     1
  8
0
  6
Continuous
 62
     7
370
    25
100
AcDbLine
 10
5.2666666667
 20
12.6666666667
 30
0.0
 11
5.2666666667
 21
307.3333333333
 31
0.0
  0
LINE
  5
143
330
1B
100
AcDbEntity
 67
     1
  8
0
  6
Continuous
 62
     7
370
    25
100
AcDbLine
 10
6.7666666667
 20
307.3333333333
 30
0.0
 11
5.2666666667
 21
307.3333333333
 31
0.0
  0
ARC
  5
144
330
1B
100
AcDbEntity
 67
     1
  8
0
  6
Continuous
 62
     7
370
    25
100
AcDbCircle
 10
9.2666666667
 20
12.6666666667
 30
0.0
 40
2.500000000000059
100
AcDbArc
 50
180.0
 51
270.0
  0
ARC
  5
145
330
1B
100
AcDbEntity
 67
     1
  8
0
  6
Continuous
 62
     7
370
    25
100
AcDbCircle
 10
9.2666666667
 20
12.6666666667
 30
0.0
 40
4.000000000000004
100
AcDbArc
 50
180.0
 51
270.0
  0
ARC
  5
146
330
1B
100
AcDbEntity
 67
     1
  8
0
  6
Continuous
 62
     7
370
    25
100
AcDbCircle
 10
84.7333333333
 20
12.6666666667
 30
0.0
 40
2.500000000000073
100
AcDbArc
 50
270.0
 51
0.0
  0
ARC
  5
147
330
1B
100
AcDbEntity
 67
     1
  8
0
  6
Continuous
 62
     7
370
    25
100
AcDbCircle
 10
84.7333333333
 20
12.6666666667
 30
0.0
 40
3.999999999999957
100
AcDbArc
 50
270.0
 51
0.0
  0
ARC
  5
148
330
1B
100
AcDbEntity
 67
     1
  8
0
  6
Continuous
 62
     7
370
    25
100
AcDbCircle
 10
84.7333333333
 20
307.3333333333
 30
0.0
 40
4.000000000000043
100
AcDbArc
 50
0.0
 51
90.0
  0
ARC
  5
149
330
1B
100
AcDbEntity
 67
     1
  8
0
  6
Continuous
 62
     7
370
    25
100
AcDbCircle
 10
84.7333333333
 20
307.3333333333
 30
0.0
 40
2.500000000000071
100
AcDbArc
 50
0.0
 51
90.0
  0
ARC
  5
14A
330
1B
100
AcDbEntity
 67
     1
  8
0
  6
Continuous
 62
     7
370
    25
100
AcDbCircle
 10
9.2666666667
 20
307.3333333333
 30
0.0
 40
2.500000000000057
100
AcDbArc
 50
90.0
 51
180.0
  0
ARC
  5
14B
330
1B
100
AcDbEntity
 67
     1
  8
0
  6
Continuous
 62
     7
370
    25
100
AcDbCircle
 10
9.2666666667
 20
307.3333333333
 30
0.0
 40
4.000000000000081
100
AcDbArc
 50
90.0
 51
180.0
  0
VIEWPORT
  5
438
330
1B
100
AcDbEntity
 67
     1
  8
0
100
AcDbViewport
 10
0.0
 20
0.0
 30
0.0
 40
205.6
 41
156.0
 68
     1
 69
     1
 12
344.7136829649
 22
-71.7588603704
 13
0.0
 23
0.0
 14
10.0
 24
10.0
 15
10.0
 25
10.0
 16
0.0
 26
0.0
 36
1.0
 17
0.0
 27
0.0
 37
0.0
 42
50.0
 43
0.0
 44
0.0
 45
555.4781190292
 50
0.0
 51
0.0
 72
   100
 90
   557152
  1

281
     0
 71
     1
 74
     0
110
0.0
120
0.0
130
0.0
111
1.0
121
0.0
131
0.0
112
0.0
122
1.0
132
0.0
 79
     0
146
0.0
170
     0
 61
     5
348
2F
292
     1
282
     1
141
0.0
142
0.0
 63
   256
361
439
  0
ENDSEC
  0
SECTION
  2
OBJECTS
  0
DICTIONARY
  5
C
330
0
100
AcDbDictionary
281
     1
  3
ACAD_DETAILVIEWSTYLE
350
454
  3
ACAD_GROUP
350
D
  3
ACAD_LAYOUT
350
1A
  3
ACAD_MATERIAL
350
43
  3
ACAD_MLEADERSTYLE
350
6B
  3
ACAD_MLINESTYLE
350
17
  3
ACAD_PLOTSETTINGS
350
19
  3
ACAD_PLOTSTYLENAME
350
E
  3
ACAD_SCALELIST
350
47
  3
ACAD_SECTIONVIEWSTYLE
350
455
  3
ACAD_TABLESTYLE
350
69
  3
ACAD_VISUALSTYLE
350
2A
  3
ACDB_RECOMPOSE_DATA
350
451
  3
AcDbVariableDictionary
350
44C
  0
SUN
  5
6D
330
29
100
AcDbSun
 90
        1
290
     0
 63
     7
421
 16777215
 40
1.0
291
     1
 91
  2455826
 92
 54000000
292
     0
 70
     2
 71
   256
280
     1
  0
SUN
  5
43B
330
43A
100
AcDbSun
 90
        1
290
     0
 63
     7
421
 16777215
 40
1.0
291
     1
 91
  2455826
 92
 54000000
292
     0
 70
     2
 71
   256
280
     1
  0
SUN
  5
43D
330
43C
100
AcDbSun
 90
        1
290
     0
 63
     7
421
 16777215
 40
1.0
291
     1
 91
  2455826
 92
 54000000
292
     0
 70
     2
 71
   256
280
     1
  0
SUN
  5
43F
330
43E
100
AcDbSun
 90
        1
290
     0
 63
     7
421
 16777215
 40
1.0
291
     1
 91
  2455826
 92
 54000000
292
     0
 70
     2
 71
   256
280
     1
  0
SUN
  5
441
330
440
100
AcDbSun
 90
        1
290
     0
 63
     7
421
 16777215
 40
1.0
291
     1
 91
  2455826
 92
 54000000
292
     0
 70
     2
 71
   256
280
     1
  0
SUN
  5
443
330
442
100
AcDbSun
 90
        1
290
     0
 63
     7
421
 16777215
 40
1.0
291
     1
 91
  2455826
 92
 54000000
292
     0
 70
     2
 71
   256
280
     1
  0
SUN
  5
445
330
444
100
AcDbSun
 90
        1
290
     0
 63
     7
421
 16777215
 40
1.0
291
     1
 91
  2455826
 92
 54000000
292
     0
 70
     2
 71
   256
280
     1
  0
SUN
  5
447
330
446
100
AcDbSun
 90
        1
290
     0
 63
     7
421
 16777215
 40
1.0
291
     1
 91
  2455826
 92
 54000000
292
     0
 70
     2
 71
   256
280
     1
  0
SUN
  5
449
330
448
100
AcDbSun
 90
        1
290
     0
 63
     7
421
 16777215
 40
1.0
291
     1
 91
  2455826
 92
 54000000
292
     0
 70
     2
 71
   256
280
     1
  0
SUN
  5
44B
330
44A
100
AcDbSun
 90
        1
290
     0
 63
     7
421
 16777215
 40
1.0
291
     1
 91
  2455826
 92
 54000000
292
     0
 70
     2
 71
   256
280
     1
  0
SUN
  5
439
330
438
100
AcDbSun
 90
        1
290
     0
 63
     7
421
 16777215
 40
1.0
291
     1
 91
  2455826
 92
 54000000
292
     0
 70
     2
 71
   256
280
     1
  0
DICTIONARY
  5
454
102
{ACAD_REACTORS
330
C
102
}
330
C
100
AcDbDictionary
281
     1
  0
DICTIONARY
  5
D
102
{ACAD_REACTORS
330
C
102
}
330
C
100
AcDbDictionary
281
     1
  0
DICTIONARY
  5
1A
102
{ACAD_REACTORS
330
C
102
}
330
C
100
AcDbDictionary
281
     1
  3
_Dimetrisch
350
3E0
  3
_Isometrisch
350
32B
  3
_Links
350
279
  3
_Normal auf
350
1E1
  3
_Oben
350
1E
  3
_Rechts
350
195
  3
_Rückseite
350
22D
  3
_Trimetrisch
350
383
  3
_Unten
350
2BE
  3
_Vorderseite
350
26
  3
Model
350
22
  0
DICTIONARY
  5
43
102
{ACAD_REACTORS
330
C
102
}
330
C
100
AcDbDictionary
281
     1
  3
ByBlock
350
45
  3
ByLayer
350
44
  3
Global
350
46
  0
DICTIONARY
  5
6B
102
{ACAD_REACTORS
330
C
102
}
330
C
100
AcDbDictionary
281
     1
  3
Standard
350
6C
  0
DICTIONARY
  5
17
102
{ACAD_REACTORS
330
C
102
}
330
C
100
AcDbDictionary
281
     1
  3
Standard
350
18
  0
DICTIONARY
  5
19
102
{ACAD_REACTORS
330
C
102
}
330
C
100
AcDbDictionary
281
     1
  0
ACDBDICTIONARYWDFLT
  5
E
102
{ACAD_REACTORS
330
C
102
}
330
C
100
AcDbDictionary
281
     1
  3
Normal
350
F
100
AcDbDictionaryWithDefault
340
F
  0
DICTIONARY
  5
47
102
{ACAD_REACTORS
330
C
102
}
330
C
100
AcDbDictionary
281
     1
  3
A0
350
48
  3
A1
350
49
  3
A2
350
4A
  3
A3
350
4B
  3
A4
350
4C
  3
A5
350
4D
  3
A6
350
4E
  3
A7
350
4F
  3
A8
350
50
  3
A9
350
51
  3
B0
350
52
  3
B1
350
53
  3
B2
350
54
  3
B3
350
55
  3
B4
350
56
  3
B5
350
57
  3
B6
350
58
  3
B7
350
59
  3
B8
350
5A
  3
B9
350
5B
  3
C0
350
5C
  3
C1
350
5D
  3
C2
350
5E
  3
C3
350
5F
  3
C4
350
60
  3
C5
350
61
  3
C6
350
62
  3
C7
350
63
  3
C8
350
64
  3
C9
350
65
  3
D0
350
66
  3
D1
350
67
  3
D2
350
68
  0
DICTIONARY
  5
455
102
{ACAD_REACTORS
330
C
102
}
330
C
100
AcDbDictionary
281
     1
  0
DICTIONARY
  5
69
102
{ACAD_REACTORS
330
C
102
}
330
C
100
AcDbDictionary
281
     1
  3
Standard
350
6A
  0
DICTIONARY
  5
2A
102
{ACAD_REACTORS
330
C
102
}
330
C
100
AcDbDictionary
281
     1
  3
2dWireframe
350
2F
  3
Basic
350
32
  3
Brighten
350
36
  3
ColorChange
350
3A
  3
Conceptual
350
34
  3
Dim
350
35
  3
EdgeColorOff
350
3D
  3
Facepattern
350
39
  3
Flat
350
2B
  3
FlatWithEdges
350
2C
  3
Gouraud
350
2D
  3
GouraudWithEdges
350
2E
  3
Hidden
350
31
  3
JitterOff
350
3B
  3
Linepattern
350
38
  3
OverhangOff
350
3C
  3
Realistic
350
33
  3
Shaded
350
42
  3
Shaded with edges
350
41
  3
Shades of Gray
350
3E
  3
Sketchy
350
3F
  3
Thicken
350
37
  3
Wireframe
350
30
  3
X-Ray
350
40
  0
XRECORD
  5
451
102
{ACAD_REACTORS
330
C
102
}
330
C
100
AcDbXrecord
280
     1
 90
        1
330
6A
  0
DICTIONARY
  5
44C
102
{ACAD_REACTORS
330
C
102
}
330
C
100
AcDbDictionary
281
     1
  3
CANNOSCALE
350
44D
  3
CMLEADERSTYLE
350
453
  3
CTABLESTYLE
350
452
  0
LAYOUT
  5
3E0
102
{ACAD_REACTORS
330
1A
102
}
330
1A
100
AcDbPlotSettings
  1

  2
none_device
  4
ISO_A4_(210.00_x_297.00_MM)
  6

 40
7.5
 41
20.0
 42
7.5
 43
20.0
 44
210.0
 45
297.0
 46
0.0
 47
0.0
 48
0.0
 49
0.0
140
0.0
141
0.0
142
1.0
143
2.6264687503
 70
   688
 72
     1
 73
     1
 74
     1
  7

 75
     0
 76
     0
 77
     2
 78
   300
147
0.3807393482
148
10.002468831
149
10.0154202096
100
AcDbLayout
  1
_Dimetrisch
 70
     1
 71
    10
 10
0.0
 20
0.0
 11
0.0
 21
0.0
 12
0.0
 22
0.0
 32
0.0
 14
0.0
 24
0.0
 34
0.0
 15
0.0
 25
0.0
 35
0.0
146
0.0
 13
0.0
 23
0.0
 33
0.0
 16
1.0
 26
0.0
 36
0.0
 17
0.0
 27
1.0
 37
0.0
 76
     0
330
3DF
331
44A
  0
LAYOUT
  5
32B
102
{ACAD_REACTORS
330
1A
102
}
330
1A
100
AcDbPlotSettings
  1

  2
none_device
  4
ISO_A4_(210.00_x_297.00_MM)
  6

 40
7.5
 41
20.0
 42
7.5
 43
20.0
 44
210.0
 45
297.0
 46
0.0
 47
0.0
 48
0.0
 49
0.0
140
0.0
141
0.0
142
1.0
143
2.6264687503
 70
   688
 72
     1
 73
     1
 74
     1
  7

 75
     0
 76
     0
 77
     2
 78
   300
147
0.3807393482
148
10.002468831
149
10.0154202096
100
AcDbLayout
  1
_Isometrisch
 70
     1
 71
     8
 10
0.0
 20
0.0
 11
0.0
 21
0.0
 12
0.0
 22
0.0
 32
0.0
 14
0.0
 24
0.0
 34
0.0
 15
0.0
 25
0.0
 35
0.0
146
0.0
 13
0.0
 23
0.0
 33
0.0
 16
1.0
 26
0.0
 36
0.0
 17
0.0
 27
1.0
 37
0.0
 76
     0
330
32A
331
446
  0
LAYOUT
  5
279
102
{ACAD_REACTORS
330
1A
102
}
330
1A
100
AcDbPlotSettings
  1

  2
none_device
  4
ISO_A4_(210.00_x_297.00_MM)
  6

 40
7.5
 41
20.0
 42
7.5
 43
20.0
 44
210.0
 45
297.0
 46
0.0
 47
0.0
 48
0.0
 49
0.0
140
0.0
141
0.0
142
1.0
143
2.6264687503
 70
   688
 72
     1
 73
     1
 74
     1
  7

 75
     0
 76
     0
 77
     2
 78
   300
147
0.3807393482
148
10.002468831
149
10.0154202096
100
AcDbLayout
  1
_Links
 70
     1
 71
     6
 10
0.0
 20
0.0
 11
0.0
 21
0.0
 12
0.0
 22
0.0
 32
0.0
 14
0.0
 24
0.0
 34
0.0
 15
0.0
 25
0.0
 35
0.0
146
0.0
 13
0.0
 23
0.0
 33
0.0
 16
1.0
 26
0.0
 36
0.0
 17
0.0
 27
1.0
 37
0.0
 76
     0
330
278
331
442
  0
LAYOUT
  5
1E1
102
{ACAD_REACTORS
330
1A
102
}
330
1A
100
AcDbPlotSettings
  1

  2
none_device
  4
ISO_A4_(210.00_x_297.00_MM)
  6

 40
7.5
 41
20.0
 42
7.5
 43
20.0
 44
210.0
 45
297.0
 46
0.0
 47
0.0
 48
0.0
 49
0.0
140
0.0
141
0.0
142
1.0
143
2.6264687503
 70
   688
 72
     1
 73
     1
 74
     1
  7

 75
     0
 76
     0
 77
     2
 78
   300
147
0.3807393482
148
10.002468831
149
10.0154202096
100
AcDbLayout
  1
_Normal auf
 70
     1
 71
     4
 10
0.0
 20
0.0
 11
0.0
 21
0.0
 12
0.0
 22
0.0
 32
0.0
 14
0.0
 24
0.0
 34
0.0
 15
0.0
 25
0.0
 35
0.0
146
0.0
 13
0.0
 23
0.0
 33
0.0
 16
1.0
 26
0.0
 36
0.0
 17
0.0
 27
1.0
 37
0.0
 76
     0
330
1E0
331
43E
  0
LAYOUT
  5
1E
102
{ACAD_REACTORS
330
1A
102
}
330
1A
100
AcDbPlotSettings
  1

  2
none_device
  4
ISO_A4_(210.00_x_297.00_MM)
  6

 40
7.5
 41
20.0
 42
7.5
 43
20.0
 44
210.0
 45
297.0
 46
0.0
 47
0.0
 48
0.0
 49
0.0
140
0.0
141
0.0
142
1.0
143
2.6264687503
 70
   688
 72
     1
 73
     1
 74
     1
  7

 75
     0
 76
     0
 77
     2
 78
   300
147
0.3807393482
148
10.002468831
149
10.0154202096
100
AcDbLayout
  1
_Oben
 70
     1
 71
     1
 10
-62.5318438374
 20
-29.713935837
 11
717.5293750063
 21
521.8445017292
 12
0.0
 22
0.0
 32
0.0
 14
-10.002468831
 24
-10.0154202096
 34
0.0
 15
665.0
 25
330.0154202096
 35
0.0
146
0.0
 13
0.0
 23
0.0
 33
0.0
 16
1.0
 26
0.0
 36
0.0
 17
0.0
 27
1.0
 37
0.0
 76
     0
330
1B
331
438
  0
LAYOUT
  5
195
102
{ACAD_REACTORS
330
1A
102
}
330
1A
100
AcDbPlotSettings
  1

  2
none_device
  4
ISO_A4_(210.00_x_297.00_MM)
  6

 40
7.5
 41
20.0
 42
7.5
 43
20.0
 44
210.0
 45
297.0
 46
0.0
 47
0.0
 48
0.0
 49
0.0
140
0.0
141
0.0
142
1.0
143
2.6264687503
 70
   688
 72
     1
 73
     1
 74
     1
  7

 75
     0
 76
     0
 77
     2
 78
   300
147
0.3807393482
148
10.002468831
149
10.0154202096
100
AcDbLayout
  1
_Rechts
 70
     1
 71
     3
 10
0.0
 20
0.0
 11
0.0
 21
0.0
 12
0.0
 22
0.0
 32
0.0
 14
0.0
 24
0.0
 34
0.0
 15
0.0
 25
0.0
 35
0.0
146
0.0
 13
0.0
 23
0.0
 33
0.0
 16
1.0
 26
0.0
 36
0.0
 17
0.0
 27
1.0
 37
0.0
 76
     0
330
194
331
43C
  0
LAYOUT
  5
22D
102
{ACAD_REACTORS
330
1A
102
}
330
1A
100
AcDbPlotSettings
  1

  2
none_device
  4
ISO_A4_(210.00_x_297.00_MM)
  6

 40
7.5
 41
20.0
 42
7.5
 43
20.0
 44
210.0
 45
297.0
 46
0.0
 47
0.0
 48
0.0
 49
0.0
140
0.0
141
0.0
142
1.0
143
2.6264687503
 70
   688
 72
     1
 73
     1
 74
     1
  7

 75
     0
 76
     0
 77
     2
 78
   300
147
0.3807393482
148
10.002468831
149
10.0154202096
100
AcDbLayout
  1
_Rückseite
 70
     1
 71
     5
 10
0.0
 20
0.0
 11
0.0
 21
0.0
 12
0.0
 22
0.0
 32
0.0
 14
0.0
 24
0.0
 34
0.0
 15
0.0
 25
0.0
 35
0.0
146
0.0
 13
0.0
 23
0.0
 33
0.0
 16
1.0
 26
0.0
 36
0.0
 17
0.0
 27
1.0
 37
0.0
 76
     0
330
22C
331
440
  0
LAYOUT
  5
383
102
{ACAD_REACTORS
330
1A
102
}
330
1A
100
AcDbPlotSettings
  1

  2
none_device
  4
ISO_A4_(210.00_x_297.00_MM)
  6

 40
7.5
 41
20.0
 42
7.5
 43
20.0
 44
210.0
 45
297.0
 46
0.0
 47
0.0
 48
0.0
 49
0.0
140
0.0
141
0.0
142
1.0
143
2.6264687503
 70
   688
 72
     1
 73
     1
 74
     1
  7

 75
     0
 76
     0
 77
     2
 78
   300
147
0.3807393482
148
10.002468831
149
10.0154202096
100
AcDbLayout
  1
_Trimetrisch
 70
     1
 71
     9
 10
0.0
 20
0.0
 11
0.0
 21
0.0
 12
0.0
 22
0.0
 32
0.0
 14
0.0
 24
0.0
 34
0.0
 15
0.0
 25
0.0
 35
0.0
146
0.0
 13
0.0
 23
0.0
 33
0.0
 16
1.0
 26
0.0
 36
0.0
 17
0.0
 27
1.0
 37
0.0
 76
     0
330
382
331
448
  0
LAYOUT
  5
2BE
102
{ACAD_REACTORS
330
1A
102
}
330
1A
100
AcDbPlotSettings
  1

  2
none_device
  4
ISO_A4_(210.00_x_297.00_MM)
  6

 40
7.5
 41
20.0
 42
7.5
 43
20.0
 44
210.0
 45
297.0
 46
0.0
 47
0.0
 48
0.0
 49
0.0
140
0.0
141
0.0
142
1.0
143
2.6264687503
 70
   688
 72
     1
 73
     1
 74
     1
  7

 75
     0
 76
     0
 77
     2
 78
   300
147
0.3807393482
148
10.002468831
149
10.0154202096
100
AcDbLayout
  1
_Unten
 70
     1
 71
     7
 10
0.0
 20
0.0
 11
0.0
 21
0.0
 12
0.0
 22
0.0
 32
0.0
 14
0.0
 24
0.0
 34
0.0
 15
0.0
 25
0.0
 35
0.0
146
0.0
 13
0.0
 23
0.0
 33
0.0
 16
1.0
 26
0.0
 36
0.0
 17
0.0
 27
1.0
 37
0.0
 76
     0
330
2BD
331
444
  0
LAYOUT
  5
26
102
{ACAD_REACTORS
330
1A
102
}
330
1A
100
AcDbPlotSettings
  1

  2
none_device
  4
ISO_A4_(210.00_x_297.00_MM)
  6

 40
7.5
 41
20.0
 42
7.5
 43
20.0
 44
210.0
 45
297.0
 46
0.0
 47
0.0
 48
0.0
 49
0.0
140
0.0
141
0.0
142
1.0
143
2.6264687503
 70
   688
 72
     1
 73
     1
 74
     1
  7

 75
     0
 76
     0
 77
     2
 78
   300
147
0.3807393482
148
10.002468831
149
10.0154202096
100
AcDbLayout
  1
_Vorderseite
 70
     1
 71
     2
 10
0.0
 20
0.0
 11
0.0
 21
0.0
 12
0.0
 22
0.0
 32
0.0
 14
0.0
 24
0.0
 34
0.0
 15
0.0
 25
0.0
 35
0.0
146
0.0
 13
0.0
 23
0.0
 33
0.0
 16
1.0
 26
0.0
 36
0.0
 17
0.0
 27
1.0
 37
0.0
 76
     0
330
23
331
43A
  0
LAYOUT
  5
22
102
{ACAD_REACTORS
330
1A
102
}
330
1A
100
AcDbPlotSettings
  1

  2
none_device
  4
ANSI_A_(11.00_x_8.50_Inches)
  6

 40
6.35
 41
19.05
 42
6.35000508
 43
19.05000254
 44
279.4
 45
215.9
 46
0.502058063
 47
116.5548822023
 48
0.0
 49
0.0
140
0.0
141
0.0
142
0.01517269
143
1.0
 70
  1696
 72
     0
 73
     0
 74
     0
  7

 75
     0
 76
     0
 77
     2
 78
   300
147
0.0179189148
148
-1300.4909072572
149
0.0
100
AcDbLayout
  1
Model
 70
     1
 71
     0
 10
0.0
 20
0.0
 11
420.0
 21
297.0
 12
0.0
 22
0.0
 32
0.0
 14
-14.1547850857
 24
-282.3144021297
 34
0.0
 15
703.5821510154
 25
138.7966813888
 35
0.0
146
0.0
 13
0.0
 23
0.0
 33
0.0
 16
1.0
 26
0.0
 36
0.0
 17
0.0
 27
1.0
 37
0.0
 76
     0
330
1F
331
29
  0
MATERIAL
  5
45
102
{ACAD_REACTORS
330
43
102
}
330
43
100
AcDbMaterial
  1
ByBlock
 72
     1
 94
      127
  0
MATERIAL
  5
44
102
{ACAD_REACTORS
330
43
102
}
330
43
100
AcDbMaterial
  1
ByLayer
 72
     1
 94
      127
  0
MATERIAL
  5
46
102
{ACAD_REACTORS
330
43
102
}
330
43
100
AcDbMaterial
  1
Global
 72
     1
 94
      127
  0
MLEADERSTYLE
  5
6C
102
{ACAD_REACTORS
330
6B
102
}
330
6B
100
AcDbMLeaderStyle
170
     2
171
     1
172
     0
 90
        2
 40
0.0
 41
0.0
173
     1
 91
-1056964608
340
14
 92
       -2
290
     1
 42
2.0
291
     1
 43
8.0
  3
Standard
341
0
 44
4.0
300

342
11
174
     1
178
     6
175
     1
176
     0
 93
-1056964608
 45
4.0
292
     0
297
     0
 46
4.0
343
0
 94
-1056964608
 47
1.0
 49
1.0
140
1.0
293
     1
141
0.0
294
     1
177
     0
142
1.0
295
     0
296
     0
143
3.75
1001
ACAD_MLEADERVER
1070
     2
  0
MLINESTYLE
  5
18
102
{ACAD_REACTORS
330
17
102
}
330
17
100
AcDbMlineStyle
  2
Standard
 70
     0
  3

 62
   256
 51
90.0
 52
90.0
 71
     2
 49
0.5
 62
   256
  6
BYLAYER
 49
-0.5
 62
   256
  6
BYLAYER
  0
ACDBPLACEHOLDER
  5
F
102
{ACAD_REACTORS
330
E
102
}
330
E
  0
SCALE
  5
48
102
{ACAD_REACTORS
330
47
102
}
330
47
100
AcDbScale
 70
     0
300
1:1
140
1.0
141
1.0
290
     1
  0
SCALE
  5
49
102
{ACAD_REACTORS
330
47
102
}
330
47
100
AcDbScale
 70
     0
300
1:2
140
1.0
141
2.0
290
     0
  0
SCALE
  5
4A
102
{ACAD_REACTORS
330
47
102
}
330
47
100
AcDbScale
 70
     0
300
1:4
140
1.0
141
4.0
290
     0
  0
SCALE
  5
4B
102
{ACAD_REACTORS
330
47
102
}
330
47
100
AcDbScale
 70
     0
300
1:5
140
1.0
141
5.0
290
     0
  0
SCALE
  5
4C
102
{ACAD_REACTORS
330
47
102
}
330
47
100
AcDbScale
 70
     0
300
1:8
140
1.0
141
8.0
290
     0
  0
SCALE
  5
4D
102
{ACAD_REACTORS
330
47
102
}
330
47
100
AcDbScale
 70
     0
300
1:10
140
1.0
141
10.0
290
     0
  0
SCALE
  5
4E
102
{ACAD_REACTORS
330
47
102
}
330
47
100
AcDbScale
 70
     0
300
1:16
140
1.0
141
16.0
290
     0
  0
SCALE
  5
4F
102
{ACAD_REACTORS
330
47
102
}
330
47
100
AcDbScale
 70
     0
300
1:20
140
1.0
141
20.0
290
     0
  0
SCALE
  5
50
102
{ACAD_REACTORS
330
47
102
}
330
47
100
AcDbScale
 70
     0
300
1:30
140
1.0
141
30.0
290
     0
  0
SCALE
  5
51
102
{ACAD_REACTORS
330
47
102
}
330
47
100
AcDbScale
 70
     0
300
1:40
140
1.0
141
40.0
290
     0
  0
SCALE
  5
52
102
{ACAD_REACTORS
330
47
102
}
330
47
100
AcDbScale
 70
     0
300
1:50
140
1.0
141
50.0
290
     0
  0
SCALE
  5
53
102
{ACAD_REACTORS
330
47
102
}
330
47
100
AcDbScale
 70
     0
300
1:100
140
1.0
141
100.0
290
     0
  0
SCALE
  5
54
102
{ACAD_REACTORS
330
47
102
}
330
47
100
AcDbScale
 70
     0
300
2:1
140
2.0
141
1.0
290
     0
  0
SCALE
  5
55
102
{ACAD_REACTORS
330
47
102
}
330
47
100
AcDbScale
 70
     0
300
4:1
140
4.0
141
1.0
290
     0
  0
SCALE
  5
56
102
{ACAD_REACTORS
330
47
102
}
330
47
100
AcDbScale
 70
     0
300
8:1
140
8.0
141
1.0
290
     0
  0
SCALE
  5
57
102
{ACAD_REACTORS
330
47
102
}
330
47
100
AcDbScale
 70
     0
300
10:1
140
10.0
141
1.0
290
     0
  0
SCALE
  5
58
102
{ACAD_REACTORS
330
47
102
}
330
47
100
AcDbScale
 70
     0
300
100:1
140
100.0
141
1.0
290
     0
  0
SCALE
  5
59
102
{ACAD_REACTORS
330
47
102
}
330
47
100
AcDbScale
 70
     0
300
1/128" = 1'-0"
140
0.0078125
141
12.0
290
     0
  0
SCALE
  5
5A
102
{ACAD_REACTORS
330
47
102
}
330
47
100
AcDbScale
 70
     0
300
1/64" = 1'-0"
140
0.015625
141
12.0
290
     0
  0
SCALE
  5
5B
102
{ACAD_REACTORS
330
47
102
}
330
47
100
AcDbScale
 70
     0
300
1/32" = 1'-0"
140
0.03125
141
12.0
290
     0
  0
SCALE
  5
5C
102
{ACAD_REACTORS
330
47
102
}
330
47
100
AcDbScale
 70
     0
300
1/16" = 1'-0"
140
0.0625
141
12.0
290
     0
  0
SCALE
  5
5D
102
{ACAD_REACTORS
330
47
102
}
330
47
100
AcDbScale
 70
     0
300
3/32" = 1'-0"
140
0.09375
141
12.0
290
     0
  0
SCALE
  5
5E
102
{ACAD_REACTORS
330
47
102
}
330
47
100
AcDbScale
 70
     0
300
1/8" = 1'-0"
140
0.125
141
12.0
290
     0
  0
SCALE
  5
5F
102
{ACAD_REACTORS
330
47
102
}
330
47
100
AcDbScale
 70
     0
300
3/16" = 1'-0"
140
0.1875
141
12.0
290
     0
  0
SCALE
  5
60
102
{ACAD_REACTORS
330
47
102
}
330
47
100
AcDbScale
 70
     0
300
1/4" = 1'-0"
140
0.25
141
12.0
290
     0
  0
SCALE
  5
61
102
{ACAD_REACTORS
330
47
102
}
330
47
100
AcDbScale
 70
     0
300
3/8" = 1'-0"
140
0.375
141
12.0
290
     0
  0
SCALE
  5
62
102
{ACAD_REACTORS
330
47
102
}
330
47
100
AcDbScale
 70
     0
300
1/2" = 1'-0"
140
0.5
141
12.0
290
     0
  0
SCALE
  5
63
102
{ACAD_REACTORS
330
47
102
}
330
47
100
AcDbScale
 70
     0
300
3/4" = 1'-0"
140
0.75
141
12.0
290
     0
  0
SCALE
  5
64
102
{ACAD_REACTORS
330
47
102
}
330
47
100
AcDbScale
 70
     0
300
1" = 1'-0"
140
1.0
141
12.0
290
     0
  0
SCALE
  5
65
102
{ACAD_REACTORS
330
47
102
}
330
47
100
AcDbScale
 70
     0
300
1-1/2" = 1'-0"
140
1.5
141
12.0
290
     0
  0
SCALE
  5
66
102
{ACAD_REACTORS
330
47
102
}
330
47
100
AcDbScale
 70
     0
300
3" = 1'-0"
140
3.0
141
12.0
290
     0
  0
SCALE
  5
67
102
{ACAD_REACTORS
330
47
102
}
330
47
100
AcDbScale
 70
     0
300
6" = 1'-0"
140
6.0
141
12.0
290
     0
  0
SCALE
  5
68
102
{ACAD_REACTORS
330
47
102
}
330
47
100
AcDbScale
 70
     0
300
1'-0" = 1'-0"
140
12.0
141
12.0
290
     0
  0
TABLESTYLE
  5
6A
102
{ACAD_REACTORS
330
69
102
}
102
{ACAD_XDICTIONARY
360
44E
102
}
330
69
100
AcDbTableStyle
  3
Standard
 70
     0
 71
     0
 40
0.06
 41
0.06
280
     0
281
     0
  7
Standard
140
4.5
170
     2
 62
     0
 63
   257
283
     0
 90
        4
 91
        0
  1

274
    -2
284
     1
 64
     0
275
    -2
285
     1
 65
     0
276
    -2
286
     1
 66
     0
277
    -2
287
     1
 67
     0
278
    -2
288
     1
 68
     0
279
    -2
289
     1
 69
     0
  7
Standard
140
6.0
170
     5
 62
     0
 63
   257
283
     0
 90
        4
 91
        0
  1

274
    -2
284
     1
 64
     0
275
    -2
285
     1
 65
     0
276
    -2
286
     1
 66
     0
277
    -2
287
     1
 67
     0
278
    -2
288
     1
 68
     0
279
    -2
289
     1
 69
     0
  7
Standard
140
4.5
170
     5
 62
     0
 63
   257
283
     0
 90
        4
 91
        0
  1

274
    -2
284
     1
 64
     0
275
    -2
285
     1
 65
     0
276
    -2
286
     1
 66
     0
277
    -2
287
     1
 67
     0
278
    -2
288
     1
 68
     0
279
    -2
289
     1
 69
     0
  0
VISUALSTYLE
  5
2F
102
{ACAD_REACTORS
330
2A
102
}
330
2A
100
AcDbVisualStyle
  2
2dWireframe
 70
     4
 71
     0
 72
     2
 73
     0
 90
        0
 40
0.6
 41
30.0
 62
     5
 63
     7
421
 16777215
 74
     1
 91
        4
 64
     7
 65
   257
 75
     1
175
     1
 42
1.0
 92
        0
 66
   257
 43
1.0
 76
     1
 77
     6
 78
     2
 67
     7
 79
     5
170
     0
171
     0
290
     0
174
     0
 93
        1
 44
0.0
173
     0
291
     0
 45
0.0
  0
VISUALSTYLE
  5
32
102
{ACAD_REACTORS
330
2A
102
}
330
2A
100
AcDbVisualStyle
  2
Basic
 70
     7
 71
     1
 72
     0
 73
     1
 90
        0
 40
0.6
 41
30.0
 62
     5
 63
     7
421
 16777215
 74
     0
 91
        4
 64
     7
 65
   257
 75
     1
175
     1
 42
1.0
 92
        8
 66
     7
 43
1.0
 76
     1
 77
     6
 78
     2
 67
     7
 79
     5
170
     0
171
     0
290
     0
174
     0
 93
        1
 44
0.0
173
     0
291
     1
 45
0.0
  0
VISUALSTYLE
  5
36
102
{ACAD_REACTORS
330
2A
102
}
330
2A
100
AcDbVisualStyle
  2
Brighten
 70
    12
 71
     2
 72
     2
 73
     0
 90
        0
 40
0.6
 41
30.0
 62
     5
 63
     7
421
 16777215
 74
     1
 91
        4
 64
     7
 65
   257
 75
     1
175
     1
 42
1.0
 92
        8
 66
     7
 43
1.0
 76
     1
 77
     6
 78
     2
 67
     7
 79
     5
170
     0
171
     0
290
     0
174
     0
 93
        1
 44
50.0
173
     0
291
     1
 45
0.0
  0
VISUALSTYLE
  5
3A
102
{ACAD_REACTORS
330
2A
102
}
330
2A
100
AcDbVisualStyle
  2
ColorChange
 70
    16
 71
     2
 72
     2
 73
     3
 90
        0
 40
0.6
 41
30.0
 62
     5
 63
     8
421
  8421504
 74
     1
 91
        4
 64
     7
 65
   257
 75
     1
175
     1
 42
1.0
 92
        8
 66
     8
424
  8421504
 43
1.0
 76
     1
 77
     6
 78
     2
 67
     7
 79
     5
170
     0
171
     0
290
     0
174
     0
 93
        1
 44
0.0
173
     0
291
     1
 45
0.0
  0
VISUALSTYLE
  5
34
102
{ACAD_REACTORS
330
2A
102
}
330
2A
100
AcDbVisualStyle
  2
Conceptual
 70
     9
 71
     3
 72
     2
 73
     0
 90
        0
 40
0.6
 41
30.0
 62
     5
 63
     7
421
 16777215
 74
     2
 91
        2
 64
     7
 65
   257
 75
     1
175
     1
 42
179.0
 92
        8
 66
     7
 43
1.0
 76
     1
 77
     6
 78
     2
 67
     7
 79
     3
170
     0
171
     0
290
     0
174
     0
 93
        1
 44
0.0
173
     0
291
     0
 45
0.0
  0
VISUALSTYLE
  5
35
102
{ACAD_REACTORS
330
2A
102
}
330
2A
100
AcDbVisualStyle
  2
Dim
 70
    11
 71
     2
 72
     2
 73
     0
 90
        0
 40
0.6
 41
30.0
 62
     5
 63
     7
421
 16777215
 74
     1
 91
        4
 64
     7
 65
   257
 75
     1
175
     1
 42
1.0
 92
        8
 66
     7
 43
1.0
 76
     1
 77
     6
 78
     2
 67
     7
 79
     5
170
     0
171
     0
290
     0
174
     0
 93
        1
 44
-50.0
173
     0
291
     1
 45
0.0
  0
VISUALSTYLE
  5
3D
102
{ACAD_REACTORS
330
2A
102
}
330
2A
100
AcDbVisualStyle
  2
EdgeColorOff
 70
    22
 71
     2
 72
     2
 73
     0
 90
        0
 40
0.6
 41
30.0
 62
     5
 63
     7
421
 16777215
 74
     1
 91
        4
 64
     7
 65
   257
 75
     1
175
     1
 42
1.0
 92
        8
 66
     7
 43
1.0
 76
     1
 77
     6
 78
     2
 67
     7
 79
     5
170
     0
171
     0
290
     0
174
     0
 93
        1
 44
0.0
173
     0
291
     1
 45
0.0
  0
VISUALSTYLE
  5
39
102
{ACAD_REACTORS
330
2A
102
}
330
2A
100
AcDbVisualStyle
  2
Facepattern
 70
    15
 71
     2
 72
     2
 73
     0
 90
        0
 40
0.6
 41
30.0
 62
     5
 63
     7
421
 16777215
 74
     1
 91
        4
 64
     7
 65
   257
 75
     1
175
     1
 42
1.0
 92
        8
 66
     7
 43
1.0
 76
     1
 77
     6
 78
     2
 67
     7
 79
     5
170
     0
171
     0
290
     0
174
     0
 93
        1
 44
0.0
173
     0
291
     1
 45
0.0
  0
VISUALSTYLE
  5
2B
102
{ACAD_REACTORS
330
2A
102
}
330
2A
100
AcDbVisualStyle
  2
Flat
 70
     0
 71
     2
 72
     1
 73
     1
 90
        2
 40
0.6
 41
30.0
 62
     5
 63
     7
421
 16777215
 74
     0
 91
        0
 64
     7
 65
   257
 75
     1
175
     1
 42
1.0
 92
        8
 66
     7
 43
1.0
 76
     1
 77
     6
 78
     2
 67
     7
 79
     5
170
     0
171
     0
290
     0
174
     0
 93
       13
 44
0.0
173
     0
291
     1
 45
0.0
  0
VISUALSTYLE
  5
2C
102
{ACAD_REACTORS
330
2A
102
}
330
2A
100
AcDbVisualStyle
  2
FlatWithEdges
 70
     1
 71
     2
 72
     1
 73
     1
 90
        2
 40
0.6
 41
30.0
 62
     5
 63
     7
421
 16777215
 74
     1
 91
        0
 64
     7
 65
   257
 75
     1
175
     1
 42
1.0
 92
        0
 66
   257
 43
1.0
 76
     1
 77
     6
 78
     2
 67
     7
 79
     5
170
     0
171
     0
290
     0
174
     0
 93
       13
 44
0.0
173
     0
291
     1
 45
0.0
  0
VISUALSTYLE
  5
2D
102
{ACAD_REACTORS
330
2A
102
}
330
2A
100
AcDbVisualStyle
  2
Gouraud
 70
     2
 71
     2
 72
     2
 73
     1
 90
        2
 40
0.6
 41
30.0
 62
     5
 63
     7
421
 16777215
 74
     0
 91
        0
 64
     7
 65
   257
 75
     1
175
     1
 42
1.0
 92
        0
 66
     7
 43
1.0
 76
     1
 77
     6
 78
     2
 67
     7
 79
     5
170
     0
171
     0
290
     0
174
     0
 93
       13
 44
0.0
173
     0
291
     1
 45
0.0
  0
VISUALSTYLE
  5
2E
102
{ACAD_REACTORS
330
2A
102
}
330
2A
100
AcDbVisualStyle
  2
GouraudWithEdges
 70
     3
 71
     2
 72
     2
 73
     1
 90
        2
 40
0.6
 41
30.0
 62
     5
 63
     7
421
 16777215
 74
     1
 91
        0
 64
     7
 65
   257
 75
     1
175
     1
 42
1.0
 92
        0
 66
   257
 43
1.0
 76
     1
 77
     6
 78
     2
 67
     7
 79
     5
170
     0
171
     0
290
     0
174
     0
 93
       13
 44
0.0
173
     0
291
     1
 45
0.0
  0
VISUALSTYLE
  5
31
102
{ACAD_REACTORS
330
2A
102
}
330
2A
100
AcDbVisualStyle
  2
Hidden
 70
     6
 71
     1
 72
     2
 73
     2
 90
        0
 40
0.6
 41
30.0
 62
     5
 63
     7
421
 16777215
 74
     2
 91
        2
 64
     7
 65
   257
 75
     2
175
     1
 42
40.0
 92
        0
 66
   257
 43
1.0
 76
     1
 77
     6
 78
     2
 67
     7
 79
     3
170
     0
171
     0
290
     0
174
     0
 93
        1
 44
0.0
173
     0
291
     0
 45
0.0
  0
VISUALSTYLE
  5
3B
102
{ACAD_REACTORS
330
2A
102
}
330
2A
100
AcDbVisualStyle
  2
JitterOff
 70
    20
 71
     2
 72
     2
 73
     0
 90
        0
 40
0.6
 41
30.0
 62
     5
 63
     7
421
 16777215
 74
     1
 91
        4
 64
     7
 65
   257
 75
     1
175
     1
 42
1.0
 92
       10
 66
     7
 43
1.0
 76
     1
 77
     6
 78
     2
 67
     7
 79
     5
170
     0
171
     0
290
     0
174
     0
 93
        1
 44
0.0
173
     0
291
     1
 45
0.0
  0
VISUALSTYLE
  5
38
102
{ACAD_REACTORS
330
2A
102
}
330
2A
100
AcDbVisualStyle
  2
Linepattern
 70
    14
 71
     2
 72
     2
 73
     0
 90
        0
 40
0.6
 41
30.0
 62
     5
 63
     7
421
 16777215
 74
     1
 91
        4
 64
     7
 65
   257
 75
     7
175
     7
 42
1.0
 92
        8
 66
     7
 43
1.0
 76
     1
 77
     6
 78
     2
 67
     7
 79
     5
170
     0
171
     0
290
     0
174
     0
 93
        1
 44
0.0
173
     0
291
     1
 45
0.0
  0
VISUALSTYLE
  5
3C
102
{ACAD_REACTORS
330
2A
102
}
330
2A
100
AcDbVisualStyle
  2
OverhangOff
 70
    21
 71
     2
 72
     2
 73
     0
 90
        0
 40
0.6
 41
30.0
 62
     5
 63
     7
421
 16777215
 74
     1
 91
        4
 64
     7
 65
   257
 75
     1
175
     1
 42
1.0
 92
        9
 66
     7
 43
1.0
 76
     1
 77
     6
 78
     2
 67
     7
 79
     5
170
     0
171
     0
290
     0
174
     0
 93
        1
 44
0.0
173
     0
291
     1
 45
0.0
  0
VISUALSTYLE
  5
33
102
{ACAD_REACTORS
330
2A
102
}
330
2A
100
AcDbVisualStyle
  2
Realistic
 70
     8
 71
     2
 72
     3
 73
     0
 90
        2
 40
0.6
 41
30.0
 62
     5
 63
     7
421
 16777215
 74
     0
 91
        0
 64
     7
 65
   257
 75
     1
175
     1
 42
1.0
 92
        8
 66
   257
 43
1.0
 76
     1
 77
     6
 78
     2
 67
     7
 79
     3
170
     0
171
     0
290
     0
174
     0
 93
       13
 44
0.0
173
     0
291
     0
 45
0.0
  0
VISUALSTYLE
  5
42
102
{ACAD_REACTORS
330
2A
102
}
330
2A
100
AcDbVisualStyle
  2
Shaded
 70
    27
 71
     2
 72
     2
 73
     1
 90
        2
 40
0.6
 41
30.0
 62
     5
 63
     7
421
 16777215
 74
     0
 91
        4
 64
     7
 65
   257
 75
     1
175
     1
 42
1.0
 92
        8
 66
   257
 43
1.0
 76
     1
 77
     6
 78
     2
 67
     8
425
  7895160
 79
     3
170
     0
171
     0
290
     0
174
     0
 93
        5
 44
0.0
173
     0
291
     0
 45
0.0
  0
VISUALSTYLE
  5
41
102
{ACAD_REACTORS
330
2A
102
}
330
2A
100
AcDbVisualStyle
  2
Shaded with edges
 70
    26
 71
     2
 72
     2
 73
     1
 90
        2
 40
0.6
 41
30.0
 62
     5
 63
     7
421
 16777215
 74
     1
 91
       10
 64
     7
 65
   257
 75
     2
175
     1
 42
1.0
 92
        8
 66
   257
 43
1.0
 76
     1
 77
     6
 78
     2
 67
     7
 79
     3
170
     0
171
     0
290
     0
174
     0
 93
        5
 44
0.0
173
     0
291
     0
 45
0.0
  0
VISUALSTYLE
  5
3E
102
{ACAD_REACTORS
330
2A
102
}
330
2A
100
AcDbVisualStyle
  2
Shades of Gray
 70
    23
 71
     2
 72
     2
 73
     3
 90
        0
 40
0.6
 41
30.0
 62
     5
 63
     7
421
 16777215
 74
     2
 91
        2
 64
     7
 65
     7
 75
     1
175
     1
 42
40.0
 92
        8
 66
     7
 43
1.0
 76
     1
 77
     6
 78
     2
 67
     7
 79
     3
170
     0
171
     0
290
     0
174
     0
 93
        1
 44
0.0
173
     0
291
     0
 45
0.0
  0
VISUALSTYLE
  5
3F
102
{ACAD_REACTORS
330
2A
102
}
330
2A
100
AcDbVisualStyle
  2
Sketchy
 70
    24
 71
     1
 72
     2
 73
     2
 90
        0
 40
0.6
 41
30.0
 62
     5
 63
     7
421
 16777215
 74
     2
 91
        2
 64
     7
 65
     7
 75
     1
175
     1
 42
40.0
 92
       11
 66
     7
 43
1.0
 76
     1
 77
     6
 78
     2
 67
     7
 79
     6
170
     0
171
     0
290
     0
174
     0
 93
        1
 44
0.0
173
     0
291
     0
 45
0.0
  0
VISUALSTYLE
  5
37
102
{ACAD_REACTORS
330
2A
102
}
330
2A
100
AcDbVisualStyle
  2
Thicken
 70
    13
 71
     2
 72
     2
 73
     0
 90
        0
 40
0.6
 41
30.0
 62
     5
 63
     7
421
 16777215
 74
     1
 91
        4
 64
     7
 65
   257
 75
     1
175
     1
 42
1.0
 92
       12
 66
     7
 43
1.0
 76
     1
 77
     6
 78
     2
 67
     7
 79
     5
170
     0
171
     0
290
     0
174
     0
 93
        1
 44
0.0
173
     0
291
     1
 45
0.0
  0
VISUALSTYLE
  5
30
102
{ACAD_REACTORS
330
2A
102
}
330
2A
100
AcDbVisualStyle
  2
Wireframe
 70
     5
 71
     0
 72
     2
 73
     0
 90
        0
 40
0.6
 41
30.0
 62
     5
 63
     7
421
 16777215
 74
     1
 91
        4
 64
     7
 65
   257
 75
     1
175
     1
 42
1.0
 92
        0
 66
   257
 43
1.0
 76
     1
 77
     6
 78
     2
 67
     7
 79
     3
170
     0
171
     0
290
     0
174
     0
 93
        1
 44
0.0
173
     0
291
     0
 45
0.0
  0
VISUALSTYLE
  5
40
102
{ACAD_REACTORS
330
2A
102
}
330
2A
100
AcDbVisualStyle
  2
X-Ray
 70
    25
 71
     2
 72
     2
 73
     1
 90
        1
 40
0.5
 41
30.0
 62
     5
 63
     7
421
 16777215
 74
     1
 91
        0
 64
     7
 65
   257
 75
     1
175
     1
 42
1.0
 92
        8
 66
     7
 43
1.0
 76
     1
 77
     6
 78
     2
 67
     7
 79
     3
170
     0
171
     0
290
     0
174
     0
 93
       13
 44
0.0
173
     0
291
     0
 45
0.0
  0
DICTIONARYVAR
  5
44D
102
{ACAD_REACTORS
330
44C
102
}
330
44C
100
DictionaryVariables
280
     0
  1
1:1
  0
DICTIONARYVAR
  5
453
102
{ACAD_REACTORS
330
44C
102
}
330
44C
100
DictionaryVariables
280
     0
  1
Standard
  0
DICTIONARYVAR
  5
452
102
{ACAD_REACTORS
330
44C
102
}
330
44C
100
DictionaryVariables
280
     0
  1
Standard
  0
DICTIONARY
  5
44E
330
6A
100
AcDbDictionary
280
     1
281
     1
  3
ACAD_ROUNDTRIP_2008_TABLESTYLE_CELLSTYLEMAP
360
44F
  0
CELLSTYLEMAP
  5
44F
102
{ACAD_REACTORS
330
44E
102
}
330
44E
100
AcDbCellStyleMap
 90
        3
300
CELLSTYLE
  1
TABLEFORMAT_BEGIN
 90
        5
170
     1
 91
        0
 92
    32768
 62
   257
 93
        1
300
CONTENTFORMAT
  1
CONTENTFORMAT_BEGIN
 90
        0
 91
        0
 92
        4
 93
        0
300

 40
0.0
140
1.0
 94
        5
 62
     0
340
11
144
6.0
309
CONTENTFORMAT_END
171
     1
301
MARGIN
  1
CELLMARGIN_BEGIN
 40
1.5
 40
1.5
 40
1.5
 40
1.5
 40
1.5
 40
1.5
309
CELLMARGIN_END
 94
        6
 95
        1
302
GRIDFORMAT
  1
GRIDFORMAT_BEGIN
 90
        0
 91
        1
 62
     0
 92
       -2
340
14
 93
        0
 40
0.045
309
GRIDFORMAT_END
 95
        2
302
GRIDFORMAT
  1
GRIDFORMAT_BEGIN
 90
        0
 91
        1
 62
     0
 92
       -2
340
14
 93
        0
 40
0.045
309
GRIDFORMAT_END
 95
        4
302
GRIDFORMAT
  1
GRIDFORMAT_BEGIN
 90
        0
 91
        1
 62
     0
 92
       -2
340
14
 93
        0
 40
0.045
309
GRIDFORMAT_END
 95
        8
302
GRIDFORMAT
  1
GRIDFORMAT_BEGIN
 90
        0
 91
        1
 62
     0
 92
       -2
340
14
 93
        0
 40
0.045
309
GRIDFORMAT_END
 95
       16
302
GRIDFORMAT
  1
GRIDFORMAT_BEGIN
 90
        0
 91
        1
 62
     0
 92
       -2
340
14
 93
        0
 40
0.045
309
GRIDFORMAT_END
 95
       32
302
GRIDFORMAT
  1
GRIDFORMAT_BEGIN
 90
        0
 91
        1
 62
     0
 92
       -2
340
14
 93
        0
 40
0.045
309
GRIDFORMAT_END
309
TABLEFORMAT_END
  1
CELLSTYLE_BEGIN
 90
        1
 91
        1
300
_TITLE
309
CELLSTYLE_END
300
CELLSTYLE
  1
TABLEFORMAT_BEGIN
 90
        5
170
     1
 91
        0
 92
        0
 62
   257
 93
        1
300
CONTENTFORMAT
  1
CONTENTFORMAT_BEGIN
 90
        0
 91
        0
 92
        4
 93
        0
300

 40
0.0
140
1.0
 94
        5
 62
     0
340
11
144
4.5
309
CONTENTFORMAT_END
171
     1
301
MARGIN
  1
CELLMARGIN_BEGIN
 40
1.5
 40
1.5
 40
1.5
 40
1.5
 40
1.5
 40
1.5
309
CELLMARGIN_END
 94
        6
 95
        1
302
GRIDFORMAT
  1
GRIDFORMAT_BEGIN
 90
        0
 91
        1
 62
     0
 92
       -2
340
14
 93
        0
 40
0.045
309
GRIDFORMAT_END
 95
        2
302
GRIDFORMAT
  1
GRIDFORMAT_BEGIN
 90
        0
 91
        1
 62
     0
 92
       -2
340
14
 93
        0
 40
0.045
309
GRIDFORMAT_END
 95
        4
302
GRIDFORMAT
  1
GRIDFORMAT_BEGIN
 90
        0
 91
        1
 62
     0
 92
       -2
340
14
 93
        0
 40
0.045
309
GRIDFORMAT_END
 95
        8
302
GRIDFORMAT
  1
GRIDFORMAT_BEGIN
 90
        0
 91
        1
 62
     0
 92
       -2
340
14
 93
        0
 40
0.045
309
GRIDFORMAT_END
 95
       16
302
GRIDFORMAT
  1
GRIDFORMAT_BEGIN
 90
        0
 91
        1
 62
     0
 92
       -2
340
14
 93
        0
 40
0.045
309
GRIDFORMAT_END
 95
       32
302
GRIDFORMAT
  1
GRIDFORMAT_BEGIN
 90
        0
 91
        1
 62
     0
 92
       -2
340
14
 93
        0
 40
0.045
309
GRIDFORMAT_END
309
TABLEFORMAT_END
  1
CELLSTYLE_BEGIN
 90
        2
 91
        1
300
_HEADER
309
CELLSTYLE_END
300
CELLSTYLE
  1
TABLEFORMAT_BEGIN
 90
        5
170
     1
 91
        0
 92
        0
 62
   257
 93
        1
300
CONTENTFORMAT
  1
CONTENTFORMAT_BEGIN
 90
        0
 91
        0
 92
        4
 93
        0
300

 40
0.0
140
1.0
 94
        2
 62
     0
340
11
144
4.5
309
CONTENTFORMAT_END
171
     1
301
MARGIN
  1
CELLMARGIN_BEGIN
 40
1.5
 40
1.5
 40
1.5
 40
1.5
 40
1.5
 40
1.5
309
CELLMARGIN_END
 94
        6
 95
        1
302
GRIDFORMAT
  1
GRIDFORMAT_BEGIN
 90
        0
 91
        1
 62
     0
 92
       -2
340
14
 93
        0
 40
0.045
309
GRIDFORMAT_END
 95
        2
302
GRIDFORMAT
  1
GRIDFORMAT_BEGIN
 90
        0
 91
        1
 62
     0
 92
       -2
340
14
 93
        0
 40
0.045
309
GRIDFORMAT_END
 95
        4
302
GRIDFORMAT
  1
GRIDFORMAT_BEGIN
 90
        0
 91
        1
 62
     0
 92
       -2
340
14
 93
        0
 40
0.045
309
GRIDFORMAT_END
 95
        8
302
GRIDFORMAT
  1
GRIDFORMAT_BEGIN
 90
        0
 91
        1
 62
     0
 92
       -2
340
14
 93
        0
 40
0.045
309
GRIDFORMAT_END
 95
       16
302
GRIDFORMAT
  1
GRIDFORMAT_BEGIN
 90
        0
 91
        1
 62
     0
 92
       -2
340
14
 93
        0
 40
0.045
309
GRIDFORMAT_END
 95
       32
302
GRIDFORMAT
  1
GRIDFORMAT_BEGIN
 90
        0
 91
        1
 62
     0
 92
       -2
340
14
 93
        0
 40
0.045
309
GRIDFORMAT_END
309
TABLEFORMAT_END
  1
CELLSTYLE_BEGIN
 90
        3
 91
        2
300
_DATA
309
CELLSTYLE_END
  0
ENDSEC
  0
EOF
